  0
SECTION
  2
HEADER
  9
$ACADVER
  1
AC1012
  9
$DWGCODEPAGE
  3
dos932
  9
$INSBASE
 10
0.0
 20
0.0
 30
0.0
  9
$EXTMIN
 10
0.4894416100455601
 20
0.4902653820932415
 30
-0.0000000349181948
  9
$EXTMAX
 10
144.0134587653603
 20
99.50454747945139
 30
0.0000000814935747
  9
$LIMMIN
 10
0.0
 20
0.0
  9
$LIMMAX
 10
297.0
 20
210.0
  9
$ORTHOMODE
 70
     0
  9
$REGENMODE
 70
     1
  9
$FILLMODE
 70
     1
  9
$QTEXTMODE
 70
     0
  9
$MIRRTEXT
 70
     1
  9
$DRAGMODE
 70
     2
  9
$LTSCALE
 40
15.0
  9
$OSMODE
 70
    37
  9
$ATTMODE
 70
     1
  9
$TEXTSIZE
 40
0.2
  9
$TRACEWID
 40
0.05
  9
$TEXTSTYLE
  7
GOTHIC
  9
$CLAYER
  8
CSLAYER1
  9
$CELTYPE
  6
BYLAYER
  9
$CECOLOR
 62
   256
  9
$CELTSCALE
 40
1.0
  9
$DELOBJ
 70
     1
  9
$DISPSILH
 70
     0
  9
$DIMSCALE
 40
1.0
  9
$DIMASZ
 40
0.18
  9
$DIMEXO
 40
0.0625
  9
$DIMDLI
 40
0.38
  9
$DIMRND
 40
0.0
  9
$DIMDLE
 40
0.0
  9
$DIMEXE
 40
0.18
  9
$DIMTP
 40
0.0
  9
$DIMTM
 40
0.0
  9
$DIMTXT
 40
0.18
  9
$DIMCEN
 40
0.09
  9
$DIMTSZ
 40
0.0
  9
$DIMTOL
 70
     0
  9
$DIMLIM
 70
     0
  9
$DIMTIH
 70
     1
  9
$DIMTOH
 70
     1
  9
$DIMSE1
 70
     0
  9
$DIMSE2
 70
     0
  9
$DIMTAD
 70
     0
  9
$DIMZIN
 70
     0
  9
$DIMBLK
  1

  9
$DIMASO
 70
     1
  9
$DIMSHO
 70
     1
  9
$DIMPOST
  1

  9
$DIMAPOST
  1

  9
$DIMALT
 70
     0
  9
$DIMALTD
 70
     2
  9
$DIMALTF
 40
25.4
  9
$DIMLFAC
 40
1.0
  9
$DIMTOFL
 70
     0
  9
$DIMTVP
 40
0.0
  9
$DIMTIX
 70
     0
  9
$DIMSOXD
 70
     0
  9
$DIMSAH
 70
     0
  9
$DIMBLK1
  1

  9
$DIMBLK2
  1

  9
$DIMSTYLE
  2
STANDARD
  9
$DIMCLRD
 70
     0
  9
$DIMCLRE
 70
     0
  9
$DIMCLRT
 70
     0
  9
$DIMTFAC
 40
1.0
  9
$DIMGAP
 40
0.09
  9
$DIMJUST
 70
     0
  9
$DIMSD1
 70
     0
  9
$DIMSD2
 70
     0
  9
$DIMTOLJ
 70
     1
  9
$DIMTZIN
 70
     0
  9
$DIMALTZ
 70
     0
  9
$DIMALTTZ
 70
     0
  9
$DIMFIT
 70
     3
  9
$DIMUPT
 70
     0
  9
$DIMUNIT
 70
     2
  9
$DIMDEC
 70
     4
  9
$DIMTDEC
 70
     4
  9
$DIMALTU
 70
     2
  9
$DIMALTTD
 70
     2
  9
$DIMTXSTY
  7
STANDARD
  9
$DIMAUNIT
 70
     0
  9
$LUNITS
 70
     2
  9
$LUPREC
 70
     4
  9
$SKETCHINC
 40
0.1
  9
$FILLETRAD
 40
0.0
  9
$AUNITS
 70
     0
  9
$AUPREC
 70
     0
  9
$MENU
  1
ACAD
  9
$ELEVATION
 40
0.0
  9
$PELEVATION
 40
0.0
  9
$THICKNESS
 40
0.0
  9
$LIMCHECK
 70
     0
  9
$BLIPMODE
 70
     1
  9
$CHAMFERA
 40
0.0
  9
$CHAMFERB
 40
0.0
  9
$CHAMFERC
 40
0.0
  9
$CHAMFERD
 40
0.0
  9
$SKPOLY
 70
     0
  9
$TDCREATE
 40
2453482.000000000
  9
$TDUPDATE
 40
2453575.548296979
  9
$TDINDWG
 40
0.0007924653
  9
$TDUSRTIMER
 40
0.0007922338
  9
$USRTIMER
 70
     1
  9
$ANGBASE
 50
0.0
  9
$ANGDIR
 70
     0
  9
$PDMODE
 70
     0
  9
$PDSIZE
 40
0.0
  9
$PLINEWID
 40
0.0
  9
$COORDS
 70
     0
  9
$SPLFRAME
 70
     0
  9
$SPLINETYPE
 70
     6
  9
$SPLINESEGS
 70
     8
  9
$ATTDIA
 70
     0
  9
$ATTREQ
 70
     1
  9
$HANDLING
 70
 22529
  9
$HANDSEED
  5
201
  9
$SURFTAB1
 70
     6
  9
$SURFTAB2
 70
     6
  9
$SURFTYPE
 70
     6
  9
$SURFU
 70
     6
  9
$SURFV
 70
     6
  9
$UCSNAME
  2

  9
$UCSORG
 10
0.0
 20
0.0
 30
0.0
  9
$UCSXDIR
 10
1.0
 20
0.0
 30
0.0
  9
$UCSYDIR
 10
0.0
 20
1.0
 30
0.0
  9
$PUCSNAME
  2

  9
$PUCSORG
 10
0.0
 20
0.0
 30
0.0
  9
$PUCSXDIR
 10
1.0
 20
0.0
 30
0.0
  9
$PUCSYDIR
 10
0.0
 20
1.0
 30
0.0
  9
$USERI1
 70
     0
  9
$USERI2
 70
     0
  9
$USERI3
 70
     0
  9
$USERI4
 70
     0
  9
$USERI5
 70
     0
  9
$USERR1
 40
0.0
  9
$USERR2
 40
0.0
  9
$USERR3
 40
0.0
  9
$USERR4
 40
0.0
  9
$USERR5
 40
0.0
  9
$WORLDVIEW
 70
     1
  9
$SHADEDGE
 70
     3
  9
$SHADEDIF
 70
    70
  9
$TILEMODE
 70
     1
  9
$MAXACTVP
 70
    64
  9
$PINSBASE
 10
0.0
 20
0.0
 30
0.0
  9
$PLIMCHECK
 70
     0
  9
$PEXTMIN
 10
1.000000000000000E+20
 20
1.000000000000000E+20
 30
1.000000000000000E+20
  9
$PEXTMAX
 10
-1.000000000000000E+20
 20
-1.000000000000000E+20
 30
-1.000000000000000E+20
  9
$PLIMMIN
 10
0.0
 20
0.0
  9
$PLIMMAX
 10
12.0
 20
9.0
  9
$UNITMODE
 70
     0
  9
$VISRETAIN
 70
     1
  9
$PLINEGEN
 70
     0
  9
$PSLTSCALE
 70
     1
  9
$TREEDEPTH
 70
  3020
  9
$PICKSTYLE
 70
     3
  9
$CMLSTYLE
  2
STANDARD
  9
$CMLJUST
 70
     0
  9
$CMLSCALE
 40
1.0
  9
$SAVEIMAGES
 70
     1
  0
ENDSEC
  0
SECTION
  2
CLASSES
  0
CLASS
  1
ACDBDICTIONARYWDFLT
  2
AcDbDictionaryWithDefault
  3
AutoCAD 2000
 90
    32768
280
     0
281
     0
  0
CLASS
  1
ACDBPLACEHOLDER
  2
AcDbPlaceHolder
  3
AutoCAD 2000
 90
    32768
280
     0
281
     0
  0
CLASS
  1
LAYOUT
  2
AcDbLayout
  3
AutoCAD 2000
 90
    32768
280
     0
281
     0
  0
CLASS
  1
DICTIONARYVAR
  2
AcDbDictionaryVar
  3
AutoCAD 2000
 90
    32768
280
     0
281
     0
  0
CLASS
  1
LONG_TRANSACTION
  2
AcDbLongTransaction
  3
AutoCAD 2000
 90
    32768
280
     0
281
     0
  0
CLASS
  1
LWPOLYLINE
  2
AcDbPolyline
  3
AutoCAD 2000
 90
    32768
280
     0
281
     1
  0
CLASS
  1
HATCH
  2
AcDbHatch
  3
AutoCAD 2000
 90
    32768
280
     0
281
     1
  0
CLASS
  1
XRECORD
  2
AcDbXrecord
  3
AutoCAD 2000
 90
    32768
280
     0
281
     0
  0
CLASS
  1
LONG_TRANSACTION
  2
AcDbLongTransaction
  3
AutoCAD 2000
 90
    32768
280
     0
281
     0
  0
CLASS
  1
LWPOLYLINE
  2
AcDbPolyline
  3
AutoCAD 2000
 90
    32768
280
     0
281
     1
  0
CLASS
  1
HATCH
  2
AcDbHatch
  3
AutoCAD 2000
 90
    32768
280
     0
281
     1
  0
CLASS
  1
XRECORD
  2
AcDbXrecord
  3
AutoCAD 2000
 90
    32768
280
     0
281
     0
  0
CLASS
  1
LONG_TRANSACTION
  2
AcDbLongTransaction
  3
AutoCAD 2000
 90
    32768
280
     0
281
     0
  0
CLASS
  1
LWPOLYLINE
  2
AcDbPolyline
  3
AutoCAD 2000
 90
    32768
280
     0
281
     1
  0
CLASS
  1
HATCH
  2
AcDbHatch
  3
AutoCAD 2000
 90
    32768
280
     0
281
     1
  0
CLASS
  1
XRECORD
  2
AcDbXrecord
  3
AutoCAD 2000
 90
    32768
280
     0
281
     0
  0
ENDSEC
  0
SECTION
  2
TABLES
  0
TABLE
  2
VPORT
  5
8
330
0
100
AcDbSymbolTable
 70
     2
  0
VPORT
  5
1FE
330
8
100
AcDbSymbolTableRecord
100
AcDbViewportTableRecord
  2
*ACTIVE
 70
     0
 10
0.0
 20
0.0
 11
1.0
 21
1.0
 12
72.25145018770297
 22
49.99740643077231
 13
0.0
 23
0.0
 14
1.0
 24
1.0
 15
0.0
 25
0.0
 16
0.0
 26
0.0
 36
1.0
 17
0.0
 27
0.0
 37
0.0
 40
99.73264448258687
 41
1.458837772397094
 42
50.0
 43
0.0
 44
0.0
 50
0.0
 51
0.0
 71
     0
 72
   100
 73
     1
 74
     1
 75
     0
 76
     0
 77
     0
 78
     0
  0
ENDTAB
  0
TABLE
  2
LTYPE
  5
5
330
0
100
AcDbSymbolTable
 70
     4
  0
LTYPE
  5
13
330
5
100
AcDbSymbolTableRecord
100
AcDbLinetypeTableRecord
  2
BYBLOCK
 70
     0
  3

 72
    65
 73
     0
 40
0.0
  0
LTYPE
  5
14
330
5
100
AcDbSymbolTableRecord
100
AcDbLinetypeTableRecord
  2
BYLAYER
 70
     0
  3

 72
    65
 73
     0
 40
0.0
  0
LTYPE
  5
15
330
5
100
AcDbSymbolTableRecord
100
AcDbLinetypeTableRecord
  2
CONTINUOUS
 70
     0
  3
Solid line
 72
    65
 73
     0
 40
0.0
  0
LTYPE
  5
23
330
5
100
AcDbSymbolTableRecord
100
AcDbLinetypeTableRecord
  2
DASHED
 70
     0
  3
__ __ __ __ __ __ __ __ __ __ __ __ __ __ __
 72
    65
 73
     2
 40
0.75
 49
0.5
 74
     0
 49
-0.25
 74
     0
  0
LTYPE
  5
25
330
5
100
AcDbSymbolTableRecord
100
AcDbLinetypeTableRecord
  2
DOT
 70
     0
  3
...............................................
 72
    65
 73
     2
 40
0.25
 49
0.0
 74
     0
 49
-0.25
 74
     0
  0
LTYPE
  5
28
330
5
100
AcDbSymbolTableRecord
100
AcDbLinetypeTableRecord
  2
CENTER
 70
     0
  3
____ _ ____ _ ____ _ ____ _ ____ _ ____ _ ____ 
 72
    65
 73
     4
 40
2.0
 49
1.25
 74
     0
 49
-0.25
 74
     0
 49
0.25
 74
     0
 49
-0.25
 74
     0
  0
ENDTAB
  0
TABLE
  2
LAYER
  5
2
330
0
100
AcDbSymbolTable
 70
     3
  0
LAYER
  5
10
330
2
100
AcDbSymbolTableRecord
100
AcDbLayerTableRecord
  2
0
 70
     0
 62
     7
  6
CONTINUOUS
  0
LAYER
  5
22
330
2
100
AcDbSymbolTableRecord
100
AcDbLayerTableRecord
  2
CSLAYER1
 70
     0
 62
     7
  6
CONTINUOUS
  0
LAYER
  5
177
330
2
100
AcDbSymbolTableRecord
100
AcDbLayerTableRecord
  2
DEFPOINTS
 70
     0
 62
     7
  6
CONTINUOUS
  0
ENDTAB
  0
TABLE
  2
STYLE
  5
3
330
0
100
AcDbSymbolTable
 70
     3
  0
STYLE
  5
11
330
3
100
AcDbSymbolTableRecord
100
AcDbTextStyleTableRecord
  2
STANDARD
 70
     0
 40
0.0
 41
1.0
 50
0.0
 71
     0
 42
0.2
  3
txt
  4
extfont.shx
  0
STYLE
  5
3A
330
3
100
AcDbSymbolTableRecord
100
AcDbTextStyleTableRecord
  2
FX_FONT
 70
     0
 40
1.0
 41
1.0
 50
0.0
 71
     0
 42
1.0
  3
monotxt
  4
bigfont
  0
STYLE
  5
16F
330
3
100
AcDbSymbolTableRecord
100
AcDbTextStyleTableRecord
  2
GOTHIC
 70
     0
 40
0.0
 41
1.0
 50
0.0
 71
     0
 42
0.2
  3
txt.shx
  4
extfont.shx
  0
ENDTAB
  0
TABLE
  2
VIEW
  5
6
330
0
100
AcDbSymbolTable
 70
     0
  0
ENDTAB
  0
TABLE
  2
UCS
  5
7
330
0
100
AcDbSymbolTable
 70
     0
  0
ENDTAB
  0
TABLE
  2
APPID
  5
9
330
0
100
AcDbSymbolTable
 70
     1
  0
APPID
  5
12
330
9
100
AcDbSymbolTableRecord
100
AcDbRegAppTableRecord
  2
ACAD
 70
     0
  0
ENDTAB
  0
TABLE
  2
DIMSTYLE
  5
A
330
0
100
AcDbSymbolTable
 70
     1
  0
DIMSTYLE
105
16C
330
A
100
AcDbSymbolTableRecord
100
AcDbDimStyleTableRecord
  2
STANDARD
 70
     0
  3

  4

  5

  6

  7

 40
1.0
 41
0.18
 42
0.0625
 43
0.38
 44
0.18
 45
0.0
 46
0.0
 47
0.0
 48
0.0
140
0.18
141
0.09
142
0.0
143
25.4
144
1.0
145
0.0
146
1.0
147
0.09
 71
     0
 72
     0
 73
     1
 74
     1
 75
     0
 76
     0
 77
     0
 78
     0
170
     0
171
     2
172
     0
173
     0
174
     0
175
     0
176
     0
177
     0
178
     0
270
     2
271
     4
272
     4
273
     2
274
     2
340
11
275
     0
280
     0
281
     0
282
     0
283
     1
284
     0
285
     0
286
     0
287
     3
288
     0
  0
ENDTAB
  0
TABLE
  2
BLOCK_RECORD
  5
1
330
0
100
AcDbSymbolTable
 70
    16
  0
BLOCK_RECORD
  5
1E
102
{ACAD_XDICTIONARY
360
175
102
}
330
1
100
AcDbSymbolTableRecord
100
AcDbBlockTableRecord
  2
*MODEL_SPACE
  0
BLOCK_RECORD
  5
1A
102
{ACAD_XDICTIONARY
360
173
102
}
330
1
100
AcDbSymbolTableRecord
100
AcDbBlockTableRecord
  2
*PAPER_SPACE
  0
BLOCK_RECORD
  5
3F
330
1
100
AcDbSymbolTableRecord
100
AcDbBlockTableRecord
  2
*D0
  0
BLOCK_RECORD
  5
4A
330
1
100
AcDbSymbolTableRecord
100
AcDbBlockTableRecord
  2
*D1
  0
BLOCK_RECORD
  5
57
330
1
100
AcDbSymbolTableRecord
100
AcDbBlockTableRecord
  2
FXDIM0000
  0
BLOCK_RECORD
  5
5F
330
1
100
AcDbSymbolTableRecord
100
AcDbBlockTableRecord
  2
*D3
  0
BLOCK_RECORD
  5
6A
330
1
100
AcDbSymbolTableRecord
100
AcDbBlockTableRecord
  2
*D4
  0
BLOCK_RECORD
  5
75
330
1
100
AcDbSymbolTableRecord
100
AcDbBlockTableRecord
  2
*D5
  0
BLOCK_RECORD
  5
82
330
1
100
AcDbSymbolTableRecord
100
AcDbBlockTableRecord
  2
*D6
  0
BLOCK_RECORD
  5
8E
330
1
100
AcDbSymbolTableRecord
100
AcDbBlockTableRecord
  2
FXDIM0001
  0
BLOCK_RECORD
  5
98
330
1
100
AcDbSymbolTableRecord
100
AcDbBlockTableRecord
  2
FXDIM0002
  0
BLOCK_RECORD
  5
A2
330
1
100
AcDbSymbolTableRecord
100
AcDbBlockTableRecord
  2
*D9
  0
BLOCK_RECORD
  5
AD
330
1
100
AcDbSymbolTableRecord
100
AcDbBlockTableRecord
  2
*D10
  0
BLOCK_RECORD
  5
B7
330
1
100
AcDbSymbolTableRecord
100
AcDbBlockTableRecord
  2
*D11
  0
BLOCK_RECORD
  5
C2
330
1
100
AcDbSymbolTableRecord
100
AcDbBlockTableRecord
  2
*D12
  0
BLOCK_RECORD
  5
C9
330
1
100
AcDbSymbolTableRecord
100
AcDbBlockTableRecord
  2
*D13
  0
BLOCK_RECORD
  5
178
330
1
100
AcDbSymbolTableRecord
100
AcDbBlockTableRecord
  2
*D14
  0
BLOCK_RECORD
  5
187
330
1
100
AcDbSymbolTableRecord
100
AcDbBlockTableRecord
  2
*D15
  0
ENDTAB
  0
ENDSEC
  0
SECTION
  2
BLOCKS
  0
BLOCK
  5
1F
330
1E
100
AcDbEntity
  8
0
100
AcDbBlockBegin
  2
*MODEL_SPACE
 70
     0
 10
0.0
 20
0.0
 30
0.0
  3
*MODEL_SPACE
  1

  0
ENDBLK
  5
20
330
1E
100
AcDbEntity
  8
0
100
AcDbBlockEnd
  0
BLOCK
  5
1B
330
1A
100
AcDbEntity
 67
     1
  8
0
100
AcDbBlockBegin
  2
*PAPER_SPACE
 70
     0
 10
0.0
 20
0.0
 30
0.0
  3
*PAPER_SPACE
  1

  0
ENDBLK
  5
1C
330
1A
100
AcDbEntity
 67
     1
  8
0
100
AcDbBlockEnd
  0
BLOCK
  5
40
330
3F
100
AcDbEntity
  8
0
100
AcDbBlockBegin
  2
*D0
 70
     1
 10
0.0
 20
0.0
 30
0.0
  3
*D0
  1

  0
TEXT
  5
41
330
3F
100
AcDbEntity
  8
CSLAYER1
 62
     4
100
AcDbText
 10
112.251297
 20
137.849762
 30
0.0
 40
3.0
  1
(15)
 50
90.0
 41
1.2
 51
15.0
  7
FX_FONT
 72
     5
 11
112.251297
 21
149.849762
 31
0.0
100
AcDbText
  0
LINE
  5
42
330
3F
100
AcDbEntity
  8
CSLAYER1
  6
CONTINUOUS
 62
     4
100
AcDbLine
 10
163.7348629999999
 20
128.8497629999999
 30
0.0
 11
112.2512909999999
 21
128.8497629999999
 31
0.0
  0
LINE
  5
43
330
3F
100
AcDbEntity
  8
CSLAYER1
  6
CONTINUOUS
 62
     4
100
AcDbLine
 10
163.7348629999999
 20
158.8497629999999
 30
0.0
 11
112.2512909999999
 21
158.8497629999999
 31
0.0
  0
LINE
  5
44
330
3F
100
AcDbEntity
  8
CSLAYER1
  6
CONTINUOUS
 62
     4
100
AcDbLine
 10
113.2512909999999
 20
128.8497629999999
 30
0.0
 11
113.2512909999999
 21
158.8497629999999
 31
0.0
  0
LINE
  5
45
330
3F
100
AcDbEntity
  8
CSLAYER1
  6
CONTINUOUS
 62
     4
100
AcDbLine
 10
113.2512909999999
 20
128.8497629999999
 30
0.0
 11
112.474834
 21
131.7475409999999
 31
0.0
  0
LINE
  5
46
330
3F
100
AcDbEntity
  8
CSLAYER1
  6
CONTINUOUS
 62
     4
100
AcDbLine
 10
113.2512909999999
 20
128.8497629999999
 30
0.0
 11
114.0277479999999
 21
131.7475409999999
 31
0.0
  0
LINE
  5
47
330
3F
100
AcDbEntity
  8
CSLAYER1
  6
CONTINUOUS
 62
     4
100
AcDbLine
 10
113.2512909999999
 20
158.8497629999999
 30
0.0
 11
112.474834
 21
155.9519859999998
 31
0.0
  0
LINE
  5
48
330
3F
100
AcDbEntity
  8
CSLAYER1
  6
CONTINUOUS
 62
     4
100
AcDbLine
 10
113.2512909999999
 20
158.8497629999999
 30
0.0
 11
114.0277479999999
 21
155.9519859999998
 31
0.0
  0
ENDBLK
  5
49
330
3F
100
AcDbEntity
  8
0
100
AcDbBlockEnd
  0
BLOCK
  5
4B
330
4A
100
AcDbEntity
  8
0
100
AcDbBlockBegin
  2
*D1
 70
     1
 10
0.0
 20
0.0
 30
0.0
  3
*D1
  1

  0
TEXT
  5
4C
330
4A
100
AcDbEntity
  8
CSLAYER1
 62
     4
100
AcDbText
 10
117.755524
 20
145.182556
 30
0.0
 40
3.0
  1
(1)
 50
90.0
 41
1.285714285714285
 51
15.0
  7
FX_FONT
 72
     5
 11
117.755524
 21
154.182556
 31
0.0
100
AcDbText
  0
LINE
  5
4D
330
4A
100
AcDbEntity
  8
CSLAYER1
  6
CONTINUOUS
 62
     4
100
AcDbLine
 10
129.0361599999999
 20
142.849763
 30
0.0
 11
118.251291
 21
142.849763
 31
0.0
  0
LINE
  5
4E
330
4A
100
AcDbEntity
  8
CSLAYER1
  6
CONTINUOUS
 62
     4
100
AcDbLine
 10
129.0361599999999
 20
144.849763
 30
0.0
 11
118.251291
 21
144.849763
 31
0.0
  0
LINE
  5
4F
330
4A
100
AcDbEntity
  8
CSLAYER1
  6
CONTINUOUS
 62
     4
100
AcDbLine
 10
119.251291
 20
142.849763
 30
0.0
 11
119.251291
 21
144.849763
 31
0.0
  0
LINE
  5
50
330
4A
100
AcDbEntity
  8
CSLAYER1
  6
CONTINUOUS
 62
     4
100
AcDbLine
 10
119.251291
 20
136.849763
 30
0.0
 11
119.251291
 21
142.849763
 31
0.0
  0
LINE
  5
51
330
4A
100
AcDbEntity
  8
CSLAYER1
  6
CONTINUOUS
 62
     4
100
AcDbLine
 10
119.251291
 20
142.849763
 30
0.0
 11
118.474834
 21
139.951986
 31
0.0
  0
LINE
  5
52
330
4A
100
AcDbEntity
  8
CSLAYER1
  6
CONTINUOUS
 62
     4
100
AcDbLine
 10
119.251291
 20
142.849763
 30
0.0
 11
120.027748
 21
139.951986
 31
0.0
  0
LINE
  5
53
330
4A
100
AcDbEntity
  8
CSLAYER1
  6
CONTINUOUS
 62
     4
100
AcDbLine
 10
119.251291
 20
144.849763
 30
0.0
 11
119.251291
 21
150.8497629999999
 31
0.0
  0
LINE
  5
54
330
4A
100
AcDbEntity
  8
CSLAYER1
  6
CONTINUOUS
 62
     4
100
AcDbLine
 10
119.251291
 20
144.849763
 30
0.0
 11
118.474834
 21
147.7475409999998
 31
0.0
  0
LINE
  5
55
330
4A
100
AcDbEntity
  8
CSLAYER1
  6
CONTINUOUS
 62
     4
100
AcDbLine
 10
119.251291
 20
144.849763
 30
0.0
 11
120.027748
 21
147.7475409999998
 31
0.0
  0
ENDBLK
  5
56
330
4A
100
AcDbEntity
  8
0
100
AcDbBlockEnd
  0
BLOCK
  5
58
330
57
100
AcDbEntity
  8
0
100
AcDbBlockBegin
  2
FXDIM0000
 70
     0
 10
0.0
 20
0.0
 30
0.0
  3
FXDIM0000
  1

  0
LINE
  5
59
330
57
100
AcDbEntity
  8
CSLAYER1
  6
CONTINUOUS
 62
     4
100
AcDbLine
 10
176.975002
 20
139.8894669999999
 30
0.0
 11
170.113438
 21
114.2817629999999
 31
0.0
  0
LINE
  5
5A
330
57
100
AcDbEntity
  8
CSLAYER1
  6
CONTINUOUS
 62
     4
100
AcDbLine
 10
176.975002
 20
139.8894669999999
 30
0.0
 11
176.975002
 21
136.8894669999999
 31
0.0
  0
LINE
  5
5B
330
57
100
AcDbEntity
  8
CSLAYER1
  6
CONTINUOUS
 62
     4
100
AcDbLine
 10
176.975002
 20
139.8894669999999
 30
0.0
 11
175.4750019999999
 21
137.291391
 31
0.0
  0
LINE
  5
5C
330
57
100
AcDbEntity
  8
CSLAYER1
  6
CONTINUOUS
 62
     4
100
AcDbLine
 10
170.113438
 20
114.2817629999999
 30
0.0
 11
156.113438
 21
114.2817629999999
 31
0.0
  0
TEXT
  5
5D
330
57
100
AcDbEntity
  8
CSLAYER1
 62
     4
100
AcDbText
 10
157.113449
 20
115.281761
 30
0.0
 40
3.0
  1
%%c4.1
 41
1.142857142857142
 51
15.0
  7
FX_FONT
 72
     5
 11
169.113449
 21
115.281761
 31
0.0
100
AcDbText
  0
ENDBLK
  5
5E
330
57
100
AcDbEntity
  8
0
100
AcDbBlockEnd
  0
BLOCK
  5
60
330
5F
100
AcDbEntity
  8
0
100
AcDbBlockBegin
  2
*D3
 70
     1
 10
0.0
 20
0.0
 30
0.0
  3
*D3
  1

  0
TEXT
  5
61
330
5F
100
AcDbEntity
  8
CSLAYER1
 62
     4
100
AcDbText
 10
164.0361629999999
 20
100.4216229999999
 30
0.0
 40
3.0
  1
11
 41
1.333333333333333
 51
15.0
  7
FX_FONT
 72
     5
 11
170.0361629999999
 21
100.4216229999999
 31
0.0
100
AcDbText
  0
LINE
  5
62
330
5F
100
AcDbEntity
  8
CSLAYER1
  6
CONTINUOUS
 62
     4
100
AcDbLine
 10
156.03616
 20
91.849763
 30
0.0
 11
156.03616
 21
100.4216259999999
 31
0.0
  0
LINE
  5
63
330
5F
100
AcDbEntity
  8
CSLAYER1
  6
CONTINUOUS
 62
     4
100
AcDbLine
 10
178.0361599999999
 20
95.897029
 30
0.0
 11
178.0361599999999
 21
100.4216259999999
 31
0.0
  0
LINE
  5
64
330
5F
100
AcDbEntity
  8
CSLAYER1
  6
CONTINUOUS
 62
     4
100
AcDbLine
 10
156.03616
 20
99.42162600000001
 30
0.0
 11
178.0361599999999
 21
99.42162600000001
 31
0.0
  0
LINE
  5
65
330
5F
100
AcDbEntity
  8
CSLAYER1
  6
CONTINUOUS
 62
     4
100
AcDbLine
 10
156.03616
 20
99.42162600000001
 30
0.0
 11
158.933937
 21
100.1980829999999
 31
0.0
  0
LINE
  5
66
330
5F
100
AcDbEntity
  8
CSLAYER1
  6
CONTINUOUS
 62
     4
100
AcDbLine
 10
156.03616
 20
99.42162600000001
 30
0.0
 11
158.933937
 21
98.64516899999999
 31
0.0
  0
LINE
  5
67
330
5F
100
AcDbEntity
  8
CSLAYER1
  6
CONTINUOUS
 62
     4
100
AcDbLine
 10
178.0361599999999
 20
99.42162600000001
 30
0.0
 11
175.138382
 21
100.1980829999999
 31
0.0
  0
LINE
  5
68
330
5F
100
AcDbEntity
  8
CSLAYER1
  6
CONTINUOUS
 62
     4
100
AcDbLine
 10
178.0361599999999
 20
99.42162600000001
 30
0.0
 11
175.138382
 21
98.64516899999999
 31
0.0
  0
ENDBLK
  5
69
330
5F
100
AcDbEntity
  8
0
100
AcDbBlockEnd
  0
BLOCK
  5
6B
330
6A
100
AcDbEntity
  8
0
100
AcDbBlockBegin
  2
*D4
 70
     1
 10
0.0
 20
0.0
 30
0.0
  3
*D4
  1

  0
TEXT
  5
6C
330
6A
100
AcDbEntity
  8
CSLAYER1
 62
     4
100
AcDbText
 10
131.5361629999999
 20
70.47820300000002
 30
0.0
 40
3.0
  1
切刃部有効12
 41
0.9130434782608698
 51
15.0
  7
FX_FONT
 72
     5
 11
152.5361629999999
 21
70.47820300000002
 31
0.0
100
AcDbText
  0
LINE
  5
6D
330
6A
100
AcDbEntity
  8
CSLAYER1
  6
CONTINUOUS
 62
     4
100
AcDbLine
 10
130.03616
 20
69.478203
 30
0.0
 11
154.0361599999999
 21
69.478203
 31
0.0
  0
LINE
  5
6E
330
6A
100
AcDbEntity
  8
CSLAYER1
  6
CONTINUOUS
 62
     4
100
AcDbLine
 10
130.03616
 20
69.478203
 30
0.0
 11
132.933937
 21
70.25466
 31
0.0
  0
LINE
  5
6F
330
6A
100
AcDbEntity
  8
CSLAYER1
  6
CONTINUOUS
 62
     4
100
AcDbLine
 10
130.03616
 20
69.478203
 30
0.0
 11
132.933937
 21
68.701746
 31
0.0
  0
LINE
  5
70
330
6A
100
AcDbEntity
  8
CSLAYER1
  6
CONTINUOUS
 62
     4
100
AcDbLine
 10
154.0361599999999
 20
69.478203
 30
0.0
 11
151.138382
 21
70.25466
 31
0.0
  0
LINE
  5
71
330
6A
100
AcDbEntity
  8
CSLAYER1
  6
CONTINUOUS
 62
     4
100
AcDbLine
 10
154.0361599999999
 20
69.478203
 30
0.0
 11
151.138382
 21
68.701746
 31
0.0
  0
LINE
  5
72
330
6A
100
AcDbEntity
  8
CSLAYER1
  6
CONTINUOUS
 62
     4
100
AcDbLine
 10
130.03616
 20
75.849763
 30
0.0
 11
130.03616
 21
68.47820300000001
 31
0.0
  0
LINE
  5
73
330
6A
100
AcDbEntity
  8
CSLAYER1
  6
CONTINUOUS
 62
     4
100
AcDbLine
 10
154.0361599999999
 20
75.849763
 30
0.0
 11
154.0361599999999
 21
68.47820300000001
 31
0.0
  0
ENDBLK
  5
74
330
6A
100
AcDbEntity
  8
0
100
AcDbBlockEnd
  0
BLOCK
  5
76
330
75
100
AcDbEntity
  8
0
100
AcDbBlockBegin
  2
*D5
 70
     1
 10
0.0
 20
0.0
 30
0.0
  3
*D5
  1

  0
TEXT
  5
77
330
75
100
AcDbEntity
  8
CSLAYER1
 62
     4
100
AcDbText
 10
108.064529
 20
82.599762
 30
0.0
 40
3.0
  1
7  
 50
90.0
 41
1.363636363636363
 51
15.0
  7
FX_FONT
 72
     5
 11
108.064529
 21
91.599762
 31
0.0
100
AcDbText
  0
TEXT
  5
78
330
75
100
AcDbEntity
  8
CSLAYER1
 62
     4
100
AcDbText
 10
106.564529
 20
91.599762
 30
0.0
 40
1.5
  1
  0
 50
90.0
 41
1.607142857142857
 51
15.0
  7
FX_FONT
 72
     5
 11
106.564529
 21
96.099762
 31
0.0
100
AcDbText
  0
TEXT
  5
79
330
75
100
AcDbEntity
  8
CSLAYER1
 62
     4
100
AcDbText
 10
108.064529
 20
91.599762
 30
0.0
 40
1.5
  1
-0.15
 50
90.0
 41
1.071428571428571
 51
15.0
  7
FX_FONT
 72
     5
 11
108.064529
 21
99.099762
 31
0.0
100
AcDbText
  0
LINE
  5
7A
330
75
100
AcDbEntity
  8
CSLAYER1
  6
CONTINUOUS
 62
     4
100
AcDbLine
 10
129.0361599999999
 20
76.84976299999998
 30
0.0
 11
108.0645279999999
 21
76.84976299999998
 31
0.0
  0
LINE
  5
7B
330
75
100
AcDbEntity
  8
CSLAYER1
  6
CONTINUOUS
 62
     4
100
AcDbLine
 10
155.03616
 20
90.84976299999999
 30
0.0
 11
108.0645279999999
 21
90.84976299999999
 31
0.0
  0
LINE
  5
7C
330
75
100
AcDbEntity
  8
CSLAYER1
  6
CONTINUOUS
 62
     4
100
AcDbLine
 10
109.0645279999999
 20
76.84976299999998
 30
0.0
 11
109.0645279999999
 21
90.84976299999999
 31
0.0
  0
LINE
  5
7D
330
75
100
AcDbEntity
  8
CSLAYER1
  6
CONTINUOUS
 62
     4
100
AcDbLine
 10
109.0645279999999
 20
76.84976299999998
 30
0.0
 11
108.2880709999999
 21
79.747541
 31
0.0
  0
LINE
  5
7E
330
75
100
AcDbEntity
  8
CSLAYER1
  6
CONTINUOUS
 62
     4
100
AcDbLine
 10
109.0645279999999
 20
76.84976299999998
 30
0.0
 11
109.840985
 21
79.747541
 31
0.0
  0
LINE
  5
7F
330
75
100
AcDbEntity
  8
CSLAYER1
  6
CONTINUOUS
 62
     4
100
AcDbLine
 10
109.0645279999999
 20
90.84976299999999
 30
0.0
 11
108.2880709999999
 21
87.951986
 31
0.0
  0
LINE
  5
80
330
75
100
AcDbEntity
  8
CSLAYER1
  6
CONTINUOUS
 62
     4
100
AcDbLine
 10
109.0645279999999
 20
90.84976299999999
 30
0.0
 11
109.840985
 21
87.951986
 31
0.0
  0
ENDBLK
  5
81
330
75
100
AcDbEntity
  8
0
100
AcDbBlockEnd
  0
BLOCK
  5
83
330
82
100
AcDbEntity
  8
0
100
AcDbBlockBegin
  2
*D6
 70
     1
 10
0.0
 20
0.0
 30
0.0
  3
*D6
  1

  0
TEXT
  5
84
330
82
100
AcDbEntity
  8
CSLAYER1
 62
     4
100
AcDbText
 10
113.7301029999999
 20
58.78370699999999
 30
0.0
 40
3.0
  1
(3.5)
 50
90.0
 41
1.153846153846152
 51
15.0
  7
FX_FONT
 72
     5
 11
113.7301029999999
 21
73.78370699999997
 31
0.0
100
AcDbText
  0
LINE
  5
85
330
82
100
AcDbEntity
  8
CSLAYER1
  6
CONTINUOUS
 62
     4
100
AcDbLine
 10
152.8836039999999
 20
83.84976299999998
 30
0.0
 11
113.854948
 21
83.84976299999998
 31
0.0
  0
LINE
  5
86
330
82
100
AcDbEntity
  8
CSLAYER1
  6
CONTINUOUS
 62
     4
100
AcDbLine
 10
114.854948
 20
76.84976299999998
 30
0.0
 11
114.854948
 21
83.84976299999998
 31
0.0
  0
LINE
  5
87
330
82
100
AcDbEntity
  8
CSLAYER1
  6
CONTINUOUS
 62
     4
100
AcDbLine
 10
114.854948
 20
66.986733
 30
0.0
 11
114.854948
 21
76.84976299999998
 31
0.0
  0
LINE
  5
88
330
82
100
AcDbEntity
  8
CSLAYER1
  6
CONTINUOUS
 62
     4
100
AcDbLine
 10
114.854948
 20
76.84976299999998
 30
0.0
 11
114.0784909999997
 21
73.951986
 31
0.0
  0
LINE
  5
89
330
82
100
AcDbEntity
  8
CSLAYER1
  6
CONTINUOUS
 62
     4
100
AcDbLine
 10
114.854948
 20
76.84976299999998
 30
0.0
 11
115.6314049999999
 21
73.951986
 31
0.0
  0
LINE
  5
8A
330
82
100
AcDbEntity
  8
CSLAYER1
  6
CONTINUOUS
 62
     4
100
AcDbLine
 10
114.854948
 20
83.84976299999998
 30
0.0
 11
114.854948
 21
89.84976299999997
 31
0.0
  0
LINE
  5
8B
330
82
100
AcDbEntity
  8
CSLAYER1
  6
CONTINUOUS
 62
     4
100
AcDbLine
 10
114.854948
 20
83.84976299999998
 30
0.0
 11
114.0784909999997
 21
86.74754099999999
 31
0.0
  0
LINE
  5
8C
330
82
100
AcDbEntity
  8
CSLAYER1
  6
CONTINUOUS
 62
     4
100
AcDbLine
 10
114.854948
 20
83.84976299999998
 30
0.0
 11
115.6314049999999
 21
86.74754099999999
 31
0.0
  0
ENDBLK
  5
8D
330
82
100
AcDbEntity
  8
0
100
AcDbBlockEnd
  0
BLOCK
  5
8F
330
8E
100
AcDbEntity
  8
0
100
AcDbBlockBegin
  2
FXDIM0001
 70
     0
 10
0.0
 20
0.0
 30
0.0
  3
FXDIM0001
  1

  0
LINE
  5
90
330
8E
100
AcDbEntity
  8
CSLAYER1
  6
CONTINUOUS
 62
     4
100
AcDbLine
 10
183.13616
 20
90.84976299999999
 30
0.0
 11
185.13616
 21
94.313865
 31
0.0
  0
LINE
  5
91
330
8E
100
AcDbEntity
  8
CSLAYER1
  6
CONTINUOUS
 62
     4
100
AcDbLine
 10
181.13616
 20
94.313865
 30
0.0
 11
193.13616
 21
94.313865
 31
0.0
  0
LINE
  5
92
330
8E
100
AcDbEntity
  8
CSLAYER1
  6
CONTINUOUS
 62
     4
100
AcDbLine
 10
181.13616
 20
94.313865
 30
0.0
 11
183.13616
 21
90.84976299999999
 31
0.0
  0
LINE
  5
93
330
8E
100
AcDbEntity
  8
CSLAYER1
  6
CONTINUOUS
 62
     4
100
AcDbLine
 10
187.13616
 20
90.84976299999999
 30
0.0
 11
189.13616
 21
94.313865
 31
0.0
  0
LINE
  5
94
330
8E
100
AcDbEntity
  8
CSLAYER1
  6
CONTINUOUS
 62
     4
100
AcDbLine
 10
185.13616
 20
94.313865
 30
0.0
 11
187.13616
 21
90.84976299999999
 31
0.0
  0
LINE
  5
95
330
8E
100
AcDbEntity
  8
CSLAYER1
  6
CONTINUOUS
 62
     4
100
AcDbLine
 10
191.13616
 20
90.84976299999999
 30
0.0
 11
193.13616
 21
94.313865
 31
0.0
  0
LINE
  5
96
330
8E
100
AcDbEntity
  8
CSLAYER1
  6
CONTINUOUS
 62
     4
100
AcDbLine
 10
189.13616
 20
94.313865
 30
0.0
 11
191.13616
 21
90.84976299999999
 31
0.0
  0
ENDBLK
  5
97
330
8E
100
AcDbEntity
  8
0
100
AcDbBlockEnd
  0
BLOCK
  5
99
330
98
100
AcDbEntity
  8
0
100
AcDbBlockBegin
  2
FXDIM0002
 70
     0
 10
0.0
 20
0.0
 30
0.0
  3
FXDIM0002
  1

  0
LINE
  5
9A
330
98
100
AcDbEntity
  8
CSLAYER1
  6
CONTINUOUS
 62
     4
100
AcDbLine
 10
184.33616
 20
76.84976299999998
 30
0.0
 11
182.33616
 21
73.38566199999998
 31
0.0
  0
LINE
  5
9B
330
98
100
AcDbEntity
  8
CSLAYER1
  6
CONTINUOUS
 62
     4
100
AcDbLine
 10
182.33616
 20
73.38566199999998
 30
0.0
 11
194.33616
 21
73.38566199999998
 31
0.0
  0
LINE
  5
9C
330
98
100
AcDbEntity
  8
CSLAYER1
  6
CONTINUOUS
 62
     4
100
AcDbLine
 10
186.33616
 20
73.38566199999998
 30
0.0
 11
184.33616
 21
76.84976299999998
 31
0.0
  0
LINE
  5
9D
330
98
100
AcDbEntity
  8
CSLAYER1
  6
CONTINUOUS
 62
     4
100
AcDbLine
 10
188.33616
 20
76.84976299999998
 30
0.0
 11
186.33616
 21
73.38566199999998
 31
0.0
  0
LINE
  5
9E
330
98
100
AcDbEntity
  8
CSLAYER1
  6
CONTINUOUS
 62
     4
100
AcDbLine
 10
190.33616
 20
73.38566199999998
 30
0.0
 11
188.33616
 21
76.84976299999998
 31
0.0
  0
LINE
  5
9F
330
98
100
AcDbEntity
  8
CSLAYER1
  6
CONTINUOUS
 62
     4
100
AcDbLine
 10
192.3361599999999
 20
76.84976299999998
 30
0.0
 11
190.33616
 21
73.38566199999998
 31
0.0
  0
LINE
  5
A0
330
98
100
AcDbEntity
  8
CSLAYER1
  6
CONTINUOUS
 62
     4
100
AcDbLine
 10
194.33616
 20
73.38566199999998
 30
0.0
 11
192.3361599999999
 21
76.84976299999998
 31
0.0
  0
ENDBLK
  5
A1
330
98
100
AcDbEntity
  8
0
100
AcDbBlockEnd
  0
BLOCK
  5
A3
330
A2
100
AcDbEntity
  8
0
100
AcDbBlockBegin
  2
*D9
 70
     1
 10
0.0
 20
0.0
 30
0.0
  3
*D9
  1

  0
TEXT
  5
A4
330
A2
100
AcDbEntity
  8
CSLAYER1
 62
     4
100
AcDbText
 10
74.633612
 20
173.7763939999999
 30
0.0
 40
3.0
  1
35%%d
 50
342.5000020357894
 41
1.285714337707246
 51
15.0
  7
FX_FONT
 72
     5
 11
83.21706500000003
 21
171.070042
 31
0.0
100
AcDbText
  0
ARC
  5
A5
330
A2
100
AcDbEntity
  8
CSLAYER1
  6
CONTINUOUS
 62
     4
100
AcDbCircle
 10
69.91615999999999
 20
143.849763
 30
0.0
 40
28.960093
100
AcDbArc
 50
55.0
 51
90.0
  0
LINE
  5
A6
330
A2
100
AcDbEntity
  8
CSLAYER1
  6
CONTINUOUS
 62
     4
100
AcDbLine
 10
86.526987
 20
167.572482
 30
0.0
 11
83.70790900000001
 21
168.598543
 31
0.0
  0
LINE
  5
A7
330
A2
100
AcDbEntity
  8
CSLAYER1
  6
CONTINUOUS
 62
     4
100
AcDbLine
 10
86.526987
 20
167.572482
 30
0.0
 11
84.598624
 21
169.8706159999999
 31
0.0
  0
LINE
  5
A8
330
A2
100
AcDbEntity
  8
CSLAYER1
  6
CONTINUOUS
 62
     4
100
AcDbLine
 10
69.91615999999999
 20
172.809856
 30
0.0
 11
72.81393699999998
 21
173.586313
 31
0.0
  0
LINE
  5
A9
330
A2
100
AcDbEntity
  8
CSLAYER1
  6
CONTINUOUS
 62
     4
100
AcDbLine
 10
69.91615999999999
 20
172.809856
 30
0.0
 11
72.81393699999998
 21
172.033399
 31
0.0
  0
LINE
  5
AA
330
A2
100
AcDbEntity
  8
CSLAYER1
  6
CONTINUOUS
 62
     4
100
AcDbLine
 10
72.48973599999998
 20
147.525211
 30
0.0
 11
87.10056299999996
 21
168.391634
 31
0.0
  0
LINE
  5
AB
330
A2
100
AcDbEntity
  8
CSLAYER1
  6
CONTINUOUS
 62
     4
100
AcDbLine
 10
69.91615999999999
 20
159.8497629999999
 30
0.0
 11
69.91615999999999
 21
173.809856
 31
0.0
  0
ENDBLK
  5
AC
330
A2
100
AcDbEntity
  8
0
100
AcDbBlockEnd
  0
BLOCK
  5
AE
330
AD
100
AcDbEntity
  8
0
100
AcDbBlockBegin
  2
*D10
 70
     1
 10
0.0
 20
0.0
 30
0.0
  3
*D10
  1

  0
TEXT
  5
AF
330
AD
100
AcDbEntity
  8
CSLAYER1
 62
     4
100
AcDbText
 10
70.96674499999997
 20
167.9469239999999
 30
0.0
 40
3.0
  1
25%%d
 50
347.5000031774871
 41
1.285714260530413
 51
15.0
  7
FX_FONT
 72
     5
 11
79.75340899999998
 21
165.9989679999999
 31
0.0
100
AcDbText
  0
ARC
  5
B0
330
AD
100
AcDbEntity
  8
CSLAYER1
  6
CONTINUOUS
 62
     4
100
AcDbCircle
 10
69.91615999999999
 20
142.417045
 30
0.0
 40
24.152104
100
AcDbArc
 50
65.0
 51
90.0
  0
LINE
  5
B1
330
AD
100
AcDbEntity
  8
CSLAYER1
  6
CONTINUOUS
 62
     4
100
AcDbLine
 10
80.12328000000001
 20
164.306286
 30
0.0
 11
77.16885699999997
 21
164.82723
 31
0.0
  0
LINE
  5
B2
330
AD
100
AcDbEntity
  8
CSLAYER1
  6
CONTINUOUS
 62
     4
100
AcDbLine
 10
80.12328000000001
 20
164.306286
 30
0.0
 11
77.825147
 21
166.234648
 31
0.0
  0
LINE
  5
B3
330
AD
100
AcDbEntity
  8
CSLAYER1
  6
CONTINUOUS
 62
     4
100
AcDbLine
 10
69.91615999999999
 20
166.56915
 30
0.0
 11
72.81393699999998
 21
167.345607
 31
0.0
  0
LINE
  5
B4
330
AD
100
AcDbEntity
  8
CSLAYER1
  6
CONTINUOUS
 62
     4
100
AcDbLine
 10
69.91615999999999
 20
166.56915
 30
0.0
 11
72.81393699999998
 21
165.7926929999999
 31
0.0
  0
LINE
  5
B5
330
AD
100
AcDbEntity
  8
CSLAYER1
  6
CONTINUOUS
 62
     4
100
AcDbLine
 10
77.33877800000001
 20
158.3349019999999
 30
0.0
 11
80.545898
 21
165.2125929999999
 31
0.0
  0
ENDBLK
  5
B6
330
AD
100
AcDbEntity
  8
0
100
AcDbBlockEnd
  0
BLOCK
  5
B8
330
B7
100
AcDbEntity
  8
0
100
AcDbBlockBegin
  2
*D11
 70
     1
 10
0.0
 20
0.0
 30
0.0
  3
*D11
  1

  0
TEXT
  5
B9
330
B7
100
AcDbEntity
  8
CSLAYER1
 62
     4
100
AcDbText
 10
151.036163
 20
179.28566
 30
0.0
 40
3.0
  1
24
 41
1.199999999999965
 51
15.0
  7
FX_FONT
 72
     5
 11
157.0361629999998
 21
179.28566
 31
0.0
100
AcDbText
  0
LINE
  5
BA
330
B7
100
AcDbEntity
  8
CSLAYER1
  6
CONTINUOUS
 62
     4
100
AcDbLine
 10
130.03616
 20
178.285658
 30
0.0
 11
178.0361599999999
 21
178.285658
 31
0.0
  0
LINE
  5
BB
330
B7
100
AcDbEntity
  8
CSLAYER1
  6
CONTINUOUS
 62
     4
100
AcDbLine
 10
130.03616
 20
178.285658
 30
0.0
 11
132.933937
 21
179.0621149999999
 31
0.0
  0
LINE
  5
BC
330
B7
100
AcDbEntity
  8
CSLAYER1
  6
CONTINUOUS
 62
     4
100
AcDbLine
 10
130.03616
 20
178.285658
 30
0.0
 11
132.933937
 21
177.5092009999999
 31
0.0
  0
LINE
  5
BD
330
B7
100
AcDbEntity
  8
CSLAYER1
  6
CONTINUOUS
 62
     4
100
AcDbLine
 10
178.0361599999999
 20
178.285658
 30
0.0
 11
175.138382
 21
179.0621149999999
 31
0.0
  0
LINE
  5
BE
330
B7
100
AcDbEntity
  8
CSLAYER1
  6
CONTINUOUS
 62
     4
100
AcDbLine
 10
178.0361599999999
 20
178.285658
 30
0.0
 11
175.138382
 21
177.5092009999999
 31
0.0
  0
LINE
  5
BF
330
B7
100
AcDbEntity
  8
CSLAYER1
  6
CONTINUOUS
 62
     4
100
AcDbLine
 10
130.03616
 20
145.8497629999999
 30
0.0
 11
130.03616
 21
179.285658
 31
0.0
  0
LINE
  5
C0
330
B7
100
AcDbEntity
  8
CSLAYER1
  6
CONTINUOUS
 62
     4
100
AcDbLine
 10
178.0361599999999
 20
164.9576419999999
 30
0.0
 11
178.0361599999999
 21
179.285658
 31
0.0
  0
ENDBLK
  5
C1
330
B7
100
AcDbEntity
  8
0
100
AcDbBlockEnd
  0
BLOCK
  5
C3
330
C2
100
AcDbEntity
  8
0
100
AcDbBlockBegin
  2
*D12
 70
     1
 10
0.0
 20
0.0
 30
0.0
  3
*D12
  1

  0
TEXT
  5
C4
330
C2
100
AcDbEntity
  8
CSLAYER1
 62
     4
100
AcDbText
 10
148.1557259999999
 20
131.694265
 30
0.0
 40
3.0
  1
R25
 50
71.77545192231481
 41
1.124999958591498
 51
15.0
  7
FX_FONT
 72
     5
 11
150.9704029999998
 21
140.2428079999999
 31
0.0
100
AcDbText
  0
LINE
  5
C5
330
C2
100
AcDbEntity
  8
CSLAYER1
  6
CONTINUOUS
 62
     4
100
AcDbLine
 10
149.0977649999998
 20
131.357857
 30
0.0
 11
155.125086
 21
149.6636169999999
 31
0.0
  0
LINE
  5
C6
330
C2
100
AcDbEntity
  8
CSLAYER1
  6
CONTINUOUS
 62
     4
100
AcDbLine
 10
149.0977649999998
 20
131.357857
 30
0.0
 11
149.2665129999999
 21
134.353107
 31
0.0
  0
LINE
  5
C7
330
C2
100
AcDbEntity
  8
CSLAYER1
  6
CONTINUOUS
 62
     4
100
AcDbLine
 10
149.0977649999998
 20
131.357857
 30
0.0
 11
150.74153
 21
133.867446
 31
0.0
  0
ENDBLK
  5
C8
330
C2
100
AcDbEntity
  8
0
100
AcDbBlockEnd
  0
BLOCK
  5
CA
330
C9
100
AcDbEntity
  8
0
100
AcDbBlockBegin
  2
*D13
 70
     1
 10
0.0
 20
0.0
 30
0.0
  3
*D13
  1

  0
TEXT
  5
CB
330
C9
100
AcDbEntity
  8
CSLAYER1
 62
     4
100
AcDbText
 10
63.143436
 20
27.700659
 30
0.0
 40
3.0
  1
6
 50
90.0
 41
1.5
 51
15.0
  7
FX_FONT
 72
     5
 11
63.143436
 21
30.700659
 31
0.0
100
AcDbText
  0
LINE
  5
CC
330
C9
100
AcDbEntity
  8
CSLAYER1
  6
CONTINUOUS
 62
     4
100
AcDbLine
 10
64.143437
 20
23.20065799999999
 30
0.0
 11
64.143437
 21
35.200658
 31
0.0
  0
LINE
  5
CD
330
C9
100
AcDbEntity
  8
CSLAYER1
  6
CONTINUOUS
 62
     4
100
AcDbLine
 10
64.143437
 20
23.20065799999999
 30
0.0
 11
63.36698000000001
 21
26.098435
 31
0.0
  0
LINE
  5
CE
330
C9
100
AcDbEntity
  8
CSLAYER1
  6
CONTINUOUS
 62
     4
100
AcDbLine
 10
64.143437
 20
23.20065799999999
 30
0.0
 11
64.919894
 21
26.098435
 31
0.0
  0
LINE
  5
CF
330
C9
100
AcDbEntity
  8
CSLAYER1
  6
CONTINUOUS
 62
     4
100
AcDbLine
 10
64.143437
 20
35.200658
 30
0.0
 11
63.36698000000001
 21
32.30288
 31
0.0
  0
LINE
  5
D0
330
C9
100
AcDbEntity
  8
CSLAYER1
  6
CONTINUOUS
 62
     4
100
AcDbLine
 10
64.143437
 20
35.200658
 30
0.0
 11
64.919894
 21
32.30288
 31
0.0
  0
LINE
  5
D1
330
C9
100
AcDbEntity
  8
CSLAYER1
  6
CONTINUOUS
 62
     4
100
AcDbLine
 10
74.22844999999998
 20
23.20065799999999
 30
0.0
 11
63.143437
 21
23.20065799999999
 31
0.0
  0
LINE
  5
D2
330
C9
100
AcDbEntity
  8
CSLAYER1
  6
CONTINUOUS
 62
     4
100
AcDbLine
 10
74.22844999999998
 20
35.200658
 30
0.0
 11
63.143437
 21
35.200658
 31
0.0
  0
ENDBLK
  5
D3
330
C9
100
AcDbEntity
  8
0
100
AcDbBlockEnd
  0
BLOCK
  5
185
330
178
100
AcDbEntity
  8
0
100
AcDbBlockBegin
  2
*D14
 70
     1
 10
0.0
 20
0.0
 30
0.0
  3
*D14
  1

  0
LINE
  5
179
330
178
100
AcDbEntity
  8
CSLAYER1
 62
     0
100
AcDbLine
 10
71.9520085273855
 20
146.7572560026885
 30
0.0
 11
86.63023098938641
 21
167.71993005535
 31
0.0
  0
LINE
  5
17A
330
178
100
AcDbEntity
  8
CSLAYER1
 62
     0
100
AcDbLine
 10
69.91615999999999
 20
158.912263
 30
0.0
 11
69.91616000000002
 21
172.9898564159204
 31
0.0
  0
ARC
  5
17B
330
178
100
AcDbEntity
  8
CSLAYER1
 62
     0
100
AcDbCircle
 10
69.91615999999999
 20
143.849763
 30
0.0
 40
28.96009341592062
100
AcDbArc
 50
55.35611947394843
 51
71.71413357160171
  0
ARC
  5
17C
330
178
100
AcDbEntity
  8
CSLAYER1
 62
     0
100
AcDbCircle
 10
69.91615999999999
 20
143.849763
 30
0.0
 40
28.96009341592062
100
AcDbArc
 50
73.28248206452369
 51
89.64388039896453
  0
SOLID
  5
17D
330
178
100
AcDbEntity
  8
CSLAYER1
 62
     0
100
AcDbTrace
 10
86.39635056068483
 20
167.6998956402274
 30
0.0
 11
86.36208888252864
 21
167.650639803924
 31
0.0
 12
86.52698723051617
 22
167.5724826876073
 32
0.0
 13
86.52698723051617
 23
167.5724826876073
 33
0.0
  0
SOLID
  5
17E
330
178
100
AcDbEntity
  8
CSLAYER1
 62
     0
100
AcDbTrace
 10
70.09606589903866
 20
172.7792971703293
 30
0.0
 11
70.09625236252559
 21
172.83929688059
 31
0.0
 12
69.91616000000002
 22
172.8098564159204
 32
0.0
 13
69.91616000000002
 23
172.8098564159204
 33
0.0
  0
MTEXT
  5
17F
330
178
100
AcDbEntity
  8
CSLAYER1
 62
     0
100
AcDbMText
 10
78.62462807498435
 20
171.4694949763575
 30
0.0
 40
0.18
 41
0.0
 71
     5
 72
     1
  1
\A1;35°
1001
ACAD
1000
MTEXTBEGIN
1070
    73
1070
     1
1070
    44
1040
1.0
1070
    74
1070
     0
1000
MTEXTEND
1000
MTEXTBEGIN
1070
    73
1070
     1
1070
    44
1040
1.0
1070
    74
1070
     0
1000
MTEXTEND
  0
POINT
  5
180
330
178
100
AcDbEntity
  8
DEFPOINTS
 62
     0
100
AcDbPoint
 10
81.38666706397165
 20
170.4413872142939
 30
0.0
  0
POINT
  5
181
330
178
100
AcDbEntity
  8
DEFPOINTS
 62
     0
100
AcDbPoint
 10
69.91615999999999
 20
143.849763
 30
0.0
  0
POINT
  5
182
330
178
100
AcDbEntity
  8
DEFPOINTS
 62
     0
100
AcDbPoint
 10
69.91615999999999
 20
158.8497629999999
 30
0.0
  0
POINT
  5
183
330
178
100
AcDbEntity
  8
DEFPOINTS
 62
     0
100
AcDbPoint
 10
69.91615999999999
 20
143.849763
 30
0.0
  0
POINT
  5
184
330
178
100
AcDbEntity
  8
DEFPOINTS
 62
     0
100
AcDbPoint
 10
71.91615999999998
 20
146.706059
 30
0.0
  0
ENDBLK
  5
186
330
178
100
AcDbEntity
  8
0
100
AcDbBlockEnd
  0
BLOCK
  5
193
330
187
100
AcDbEntity
  8
0
100
AcDbBlockBegin
  2
*D15
 70
     1
 10
0.0
 20
0.0
 30
0.0
  3
*D15
  1

  0
LINE
  5
188
330
187
100
AcDbEntity
  8
CSLAYER1
 62
     0
100
AcDbLine
 10
76.94257364055456
 20
157.4852382370648
 30
0.0
 11
80.19935130218721
 21
164.4694207298796
 31
0.0
  0
ARC
  5
189
330
187
100
AcDbEntity
  8
CSLAYER1
 62
     0
100
AcDbCircle
 10
69.91615999999999
 20
142.417045
 30
0.0
 40
24.15210427992542
100
AcDbArc
 50
65.4270138828405
 51
76.57982534912922
  0
ARC
  5
18A
330
187
100
AcDbEntity
  8
CSLAYER1
 62
     0
100
AcDbCircle
 10
69.91615999999999
 20
142.417045
 30
0.0
 40
24.15210427992542
100
AcDbArc
 50
78.41691049539928
 51
89.57298693061551
  0
SOLID
  5
18B
330
187
100
AcDbEntity
  8
CSLAYER1
 62
     0
100
AcDbTrace
 10
79.97243941844975
 20
164.4089844688594
 30
0.0
 11
79.94728513458929
 21
164.3545118885693
 31
0.0
 12
80.12328001738998
 22
164.306285327133
 32
0.0
 13
80.12328001738998
 23
164.306285327133
 33
0.0
  0
SOLID
  5
18C
330
187
100
AcDbEntity
  8
CSLAYER1
 62
     0
100
AcDbTrace
 10
70.09604695876024
 20
166.5384787392065
 30
0.0
 11
70.09627054176309
 21
166.5984783226269
 31
0.0
 12
69.91615999999999
 22
166.5691492799254
 32
0.0
 13
69.91615999999999
 23
166.5691492799254
 33
0.0
  0
MTEXT
  5
18D
330
187
100
AcDbEntity
  8
CSLAYER1
 62
     0
100
AcDbMText
 10
75.1436319587543
 20
165.9966480091439
 30
0.0
 40
0.18
 41
0.0
 71
     5
 72
     1
  1
\A1;25°
1001
ACAD
1000
MTEXTBEGIN
1070
    73
1070
     1
1070
    44
1040
1.0
1070
    74
1070
     0
1000
MTEXTEND
1000
MTEXTBEGIN
1070
    73
1070
     1
1070
    44
1040
1.0
1070
    74
1070
     0
1000
MTEXTEND
  0
POINT
  5
18E
330
187
100
AcDbEntity
  8
DEFPOINTS
 62
     0
100
AcDbPoint
 10
76.8430613652621
 20
165.5545076660816
 30
0.0
  0
POINT
  5
18F
330
187
100
AcDbEntity
  8
DEFPOINTS
 62
     0
100
AcDbPoint
 10
71.91615999999998
 20
146.706059
 30
0.0
  0
POINT
  5
190
330
187
100
AcDbEntity
  8
DEFPOINTS
 62
     0
100
AcDbPoint
 10
69.91615999999997
 20
173.8098559999999
 30
0.0
  0
POINT
  5
191
330
187
100
AcDbEntity
  8
DEFPOINTS
 62
     0
100
AcDbPoint
 10
69.91615999999997
 20
159.8497629999999
 30
0.0
  0
POINT
  5
192
330
187
100
AcDbEntity
  8
DEFPOINTS
 62
     0
100
AcDbPoint
 10
76.91615999999998
 20
157.428594
 30
0.0
  0
ENDBLK
  5
194
330
187
100
AcDbEntity
  8
0
100
AcDbBlockEnd
  0
ENDSEC
  0
SECTION
  2
ENTITIES
  0
POINT
  5
D4
330
1E
100
AcDbEntity
  8
CSLAYER1
 62
     3
100
AcDbPoint
 10
125.2499999999999
 20
21.75
 30
0.0
  0
POINT
  5
D5
330
1E
100
AcDbEntity
  8
CSLAYER1
 62
     3
100
AcDbPoint
 10
135.4999999999999
 20
21.75
 30
0.0
  0
POINT
  5
D6
330
1E
100
AcDbEntity
  8
CSLAYER1
 62
     3
100
AcDbPoint
 10
135.4999999999999
 20
26.75
 30
0.0
  0
POINT
  5
D7
330
1E
100
AcDbEntity
  8
CSLAYER1
 62
     3
100
AcDbPoint
 10
125.2499999999999
 20
26.75
 30
0.0
  0
TEXT
  5
D8
330
1E
100
AcDbEntity
  8
CSLAYER1
 62
     3
100
AcDbText
 10
119.0499999999999
 20
25.5
 30
0.0
 40
2.5
  1
刃開キハ
 41
1.110447761194031
  7
FX_FONT
 72
     5
 11
131.45
 21
25.5
 31
0.0
100
AcDbText
  0
TEXT
  5
D9
330
1E
100
AcDbEntity
  8
CSLAYER1
 62
     3
100
AcDbText
 10
119.0
 20
20.5
 30
0.0
 40
2.5
  1
切刃部有効
 41
0.872093023255814
  7
FX_FONT
 72
     5
 11
131.4999999999999
 21
20.5
 31
0.0
100
AcDbText
  0
TEXT
  5
DA
330
1E
100
AcDbEntity
  8
CSLAYER1
 62
     3
100
AcDbText
 10
134.25
 20
25.5
 30
0.0
 40
2.5
  1
6
 41
1.499999999999982
  7
FX_FONT
 72
     5
 11
136.7499999999999
 21
25.5
 31
0.0
100
AcDbText
  0
TEXT
  5
DB
330
1E
100
AcDbEntity
  8
CSLAYER1
 62
     3
100
AcDbText
 10
133.0
 20
20.5
 30
0.0
 40
2.5
  1
12
 41
1.199999999999999
  7
FX_FONT
 72
     5
 11
138.0
 21
20.5
 31
0.0
100
AcDbText
  0
TEXT
  5
DC
330
1E
100
AcDbEntity
  8
CSLAYER1
 62
     3
100
AcDbText
 10
121.7249999999999
 20
8.625
 30
0.0
 40
1.75
  1
NE5AJ
 41
1.169387755102045
  7
FX_FONT
 72
     5
 11
131.275
 21
8.625
 31
0.0
100
AcDbText
  0
POINT
  5
DD
330
1E
100
AcDbEntity
  8
CSLAYER1
 62
     3
100
AcDbPoint
 10
89.01807999999995
 20
71.92488149999999
 30
0.0
  0
POINT
  5
DE
330
1E
100
AcDbEntity
  8
CSLAYER1
 62
     3
100
AcDbPoint
 10
89.01807999999995
 20
41.92488149999999
 30
0.0
  0
INSERT
  5
E6
330
1E
100
AcDbEntity
  8
CSLAYER1
100
AcDbBlockReference
  2
FXDIM0001
 10
0.0
 20
0.0
 30
0.0
 41
0.5
 42
0.5
 43
0.5
  0
INSERT
  5
E7
330
1E
100
AcDbEntity
  8
CSLAYER1
100
AcDbBlockReference
  2
FXDIM0002
 10
0.0
 20
0.0
 30
0.0
 41
0.5
 42
0.5
 43
0.5
  0
POINT
  5
E8
330
1E
100
AcDbEntity
  8
CSLAYER1
 62
     3
100
AcDbPoint
 10
126.5
 20
9.5
 30
0.0
  0
LINE
  5
E9
330
1E
100
AcDbEntity
  8
CSLAYER1
  6
CONTINUOUS
 62
     3
100
AcDbLine
 10
119.0
 20
20.0
 30
0.0
 11
139.5
 21
20.0
 31
0.0
  0
LINE
  5
EA
330
1E
100
AcDbEntity
  8
CSLAYER1
  6
CONTINUOUS
 62
     3
100
AcDbLine
 10
139.5
 20
25.0
 30
0.0
 11
119.0
 21
25.0
 31
0.0
  0
LINE
  5
EB
330
1E
100
AcDbEntity
  8
CSLAYER1
  6
CONTINUOUS
 62
     3
100
AcDbLine
 10
125.01808
 20
39.1748815
 30
0.0
 11
125.01808
 21
44.6748815
 31
0.0
  0
ARC
  5
EC
330
1E
100
AcDbEntity
  8
CSLAYER1
  6
CONTINUOUS
 62
     3
100
AcDbCircle
 10
119.5924465
 20
25.4248815
 30
0.0
 40
20.0
100
AcDbArc
 50
74.25945099999998
 51
90.0
  0
LINE
  5
ED
330
1E
100
AcDbEntity
  8
CSLAYER1
  6
CONTINUOUS
 62
     3
100
AcDbLine
 10
119.5924465
 20
45.42488149999999
 30
0.0
 11
78.01808
 21
45.42488149999999
 31
0.0
  0
LINE
  5
EE
330
1E
100
AcDbEntity
  8
CSLAYER1
  6
CONTINUOUS
 62
     3
100
AcDbLine
 10
78.01808
 20
45.42488149999999
 30
0.0
 11
78.01808
 21
43.3637905
 31
0.0
  0
ARC
  5
EF
330
1E
100
AcDbEntity
  8
CSLAYER1
  6
CONTINUOUS
 62
     3
100
AcDbCircle
 10
78.9678345
 20
1.936158499999999
 30
0.0
 40
40.0
100
AcDbArc
 50
93.38415000000001
 51
110.410503
  0
LINE
  5
F0
330
1E
100
AcDbEntity
  8
CSLAYER1
  6
CONTINUOUS
 62
     3
100
AcDbLine
 10
65.01808
 20
39.42488149999999
 30
0.0
 11
65.01808
 21
38.42488149999999
 31
0.0
  0
LINE
  5
F1
330
1E
100
AcDbEntity
  8
CSLAYER1
  6
CONTINUOUS
 62
     3
100
AcDbLine
 10
65.01808
 20
38.42488149999999
 30
0.0
 11
119.5924465
 21
38.42488149999999
 31
0.0
  0
ARC
  5
F2
330
1E
100
AcDbEntity
  8
CSLAYER1
  6
CONTINUOUS
 62
     3
100
AcDbCircle
 10
119.5924465
 20
58.4248815
 30
0.0
 40
20.0
100
AcDbArc
 50
270.0
 51
285.740549
  0
LINE
  5
F3
330
1E
100
AcDbEntity
  8
CSLAYER1
  6
CONTINUOUS
 62
     3
100
AcDbLine
 10
121.0529844999999
 20
66.1452845
 30
0.0
 11
94.01808
 21
64.42488149999995
 31
0.0
  0
LINE
  5
F4
330
1E
100
AcDbEntity
  8
CSLAYER1
  6
CONTINUOUS
 62
     3
100
AcDbLine
 10
94.01808
 20
64.42488149999995
 30
0.0
 11
82.36743149999995
 21
64.42488149999995
 31
0.0
  0
LINE
  5
F5
330
1E
100
AcDbEntity
  8
CSLAYER1
  6
CONTINUOUS
 62
     3
100
AcDbLine
 10
76.979611
 20
78.714297
 30
0.0
 11
76.44929799999996
 21
78.714297
 31
0.0
  0
LINE
  5
F6
330
1E
100
AcDbEntity
  8
CSLAYER1
  6
CONTINUOUS
 62
     3
100
AcDbLine
 10
81.37698849999999
 20
79.42488149999995
 30
0.0
 11
79.20630049999999
 21
72.32488149999991
 31
0.0
  0
LINE
  5
F7
330
1E
100
AcDbEntity
  8
CSLAYER1
  6
CONTINUOUS
 62
     3
100
AcDbLine
 10
79.07876400000001
 20
72.32488149999991
 30
0.0
 11
78.0159465
 21
72.32488149999991
 31
0.0
  0
LINE
  5
F8
330
1E
100
AcDbEntity
  8
CSLAYER1
  6
CONTINUOUS
 62
     3
100
AcDbLine
 10
78.01808
 20
71.92488149999999
 30
0.0
 11
65.01808
 21
71.92488149999999
 31
0.0
  0
ARC
  5
F9
330
1E
100
AcDbEntity
  8
CSLAYER1
  6
CONTINUOUS
 62
     3
100
AcDbCircle
 10
82.36743149999995
 20
89.42488149999995
 30
0.0
 40
25.0
100
AcDbArc
 50
226.0544799999999
 51
270.0
  0
LINE
  5
FA
330
1E
100
AcDbEntity
  8
CSLAYER1
  6
CONTINUOUS
 62
     3
100
AcDbLine
 10
65.01808
 20
71.4248815
 30
0.0
 11
65.01808
 21
72.42488149999999
 31
0.0
  0
LINE
  5
FB
330
1E
100
AcDbEntity
  8
CSLAYER1
  6
CONTINUOUS
 62
     3
100
AcDbLine
 10
66.0357075
 20
73.3530295
 30
0.0
 11
77.50643700000001
 21
73.3530295
 31
0.0
  0
LINE
  5
FC
330
1E
100
AcDbEntity
  8
CSLAYER1
  6
CONTINUOUS
 62
     3
100
AcDbLine
 10
78.0159465
 20
71.52488149999991
 30
0.0
 11
79.07876400000001
 21
71.52488149999991
 31
0.0
  0
ARC
  5
FD
330
1E
100
AcDbEntity
  8
CSLAYER1
  6
CONTINUOUS
 62
     3
100
AcDbCircle
 10
79.07876400000001
 20
73.02488149999991
 30
0.0
 40
1.5
100
AcDbArc
 50
270.0
 51
353.6846839999998
  0
ARC
  5
FE
330
1E
100
AcDbEntity
  8
CSLAYER1
  6
CONTINUOUS
 62
     3
100
AcDbCircle
 10
79.07876400000001
 20
70.8248814999999
 30
0.0
 40
1.5
100
AcDbArc
 50
47.16657199999999
 51
90.0
  0
LINE
  5
FF
330
1E
100
AcDbEntity
  8
CSLAYER1
  6
CONTINUOUS
 62
     3
100
AcDbLine
 10
82.36743149999995
 20
79.42488149999995
 30
0.0
 11
94.01808
 21
79.42488149999995
 31
0.0
  0
LINE
  5
100
330
1E
100
AcDbEntity
  8
CSLAYER1
  6
CONTINUOUS
 62
     3
100
AcDbLine
 10
94.01808
 20
79.42488149999995
 30
0.0
 11
121.0529844999999
 21
77.7044785
 31
0.0
  0
LINE
  5
101
330
1E
100
AcDbEntity
  8
CSLAYER1
  6
CONTINUOUS
 62
     3
100
AcDbLine
 10
121.7945324999999
 20
77.29969649999995
 30
0.0
 11
125.01808
 21
72.92488149999996
 31
0.0
  0
LINE
  5
102
330
1E
100
AcDbEntity
  8
CSLAYER1
  6
CONTINUOUS
 62
     3
100
AcDbLine
 10
125.01808
 20
72.92488149999996
 30
0.0
 11
98.0180799999999
 21
72.92488149999996
 31
0.0
  0
ARC
  5
103
330
1E
100
AcDbEntity
  8
CSLAYER1
  6
CONTINUOUS
 62
     3
100
AcDbCircle
 10
98.0180799999999
 20
72.42488149999999
 30
0.0
 40
0.5
100
AcDbArc
 50
90.0
 51
180.0
  0
LINE
  5
104
330
1E
100
AcDbEntity
  8
CSLAYER1
  6
CONTINUOUS
 62
     3
100
AcDbLine
 10
97.51807999999996
 20
72.42488149999999
 30
0.0
 11
97.51807999999996
 21
71.4248815
 31
0.0
  0
ARC
  5
105
330
1E
100
AcDbEntity
  8
CSLAYER1
  6
CONTINUOUS
 62
     3
100
AcDbCircle
 10
98.0180799999999
 20
71.4248815
 30
0.0
 40
0.5
100
AcDbArc
 50
180.0
 51
270.0
  0
LINE
  5
106
330
1E
100
AcDbEntity
  8
CSLAYER1
  6
CONTINUOUS
 62
     3
100
AcDbLine
 10
98.0180799999999
 20
70.9248815
 30
0.0
 11
125.01808
 21
70.9248815
 31
0.0
  0
LINE
  5
107
330
1E
100
AcDbEntity
  8
CSLAYER1
  6
CONTINUOUS
 62
     3
100
AcDbLine
 10
125.01808
 20
70.9248815
 30
0.0
 11
121.7945324999999
 21
66.550067
 31
0.0
  0
ARC
  5
108
330
1E
100
AcDbEntity
  8
CSLAYER1
  6
CONTINUOUS
 62
     3
100
AcDbCircle
 10
120.9894765
 20
67.14326599999999
 30
0.0
 40
1.0
100
AcDbArc
 50
273.641185
 51
323.615648
  0
LINE
  5
109
330
1E
100
AcDbEntity
  8
CSLAYER1
  6
CONTINUOUS
 62
     3
100
AcDbLine
 10
121.01808
 20
70.9248815
 30
0.0
 11
121.01808
 21
72.92488149999996
 31
0.0
  0
LINE
  5
10A
330
1E
100
AcDbEntity
  8
CSLAYER1
  6
CONTINUOUS
 62
     3
100
AcDbLine
 10
117.01808
 20
72.92488149999996
 30
0.0
 11
117.01808
 21
70.9248815
 31
0.0
  0
ARC
  5
10B
330
1E
100
AcDbEntity
  8
CSLAYER1
  6
CONTINUOUS
 62
     3
100
AcDbCircle
 10
120.9894765
 20
76.70649699999995
 30
0.0
 40
1.0
100
AcDbArc
 50
36.38435199999999
 51
86.35881500000001
  0
LINE
  5
10C
330
1E
100
AcDbEntity
  8
CSLAYER1
  6
CONTINUOUS
 62
     3
100
AcDbLine
 10
98.64642099999997
 20
70.9248815
 30
0.0
 11
96.71157499999997
 21
64.59628599999989
 31
0.0
  0
ARC
  5
10D
330
1E
100
AcDbEntity
  8
CSLAYER1
  6
CONTINUOUS
 62
     3
100
AcDbCircle
 10
89.01807999999995
 20
71.92488149999999
 30
0.0
 40
8.5
100
AcDbArc
 50
298.072487
 51
0.0
  0
CIRCLE
  5
10E
330
1E
100
AcDbEntity
  8
CSLAYER1
  6
CONTINUOUS
 62
     3
100
AcDbCircle
 10
89.01807999999995
 20
71.92488149999999
 30
0.0
 40
5.59999999999999
  0
CIRCLE
  5
10F
330
1E
100
AcDbEntity
  8
CSLAYER1
  6
CONTINUOUS
 62
     3
100
AcDbCircle
 10
89.01807999999995
 20
71.92488149999999
 30
0.0
 40
2.049999999999998
  0
ARC
  5
110
330
1E
100
AcDbEntity
  8
CSLAYER1
  6
CONTINUOUS
 62
     3
100
AcDbCircle
 10
89.01807999999995
 20
71.92488149999999
 30
0.0
 40
8.5
100
AcDbArc
 50
118.072487
 51
173.684684
  0
ARC
  5
111
330
1E
100
AcDbEntity
  8
CSLAYER1
  6
CONTINUOUS
 62
     3
100
AcDbCircle
 10
82.36743149999995
 20
54.42488149999995
 30
0.0
 40
25.0
100
AcDbArc
 50
90.0
 51
133.9455199999999
  0
LINE
  5
112
330
1E
100
AcDbEntity
  8
CSLAYER1
  6
CONTINUOUS
 62
     3
100
AcDbLine
 10
38.45807999999999
 20
65.13546650000001
 30
0.0
 11
38.45807999999999
 21
64.42488149999995
 31
0.0
  0
LINE
  5
113
330
1E
100
AcDbEntity
  8
CSLAYER1
  6
CONTINUOUS
 62
     3
100
AcDbLine
 10
38.45807999999999
 20
65.13546650000001
 30
0.0
 11
35.95807999999999
 21
70.49673349999995
 31
0.0
  0
LINE
  5
114
330
1E
100
AcDbEntity
  8
CSLAYER1
  6
CONTINUOUS
 62
     3
100
AcDbLine
 10
35.95807999999999
 20
70.49673349999995
 30
0.0
 11
34.95807999999999
 21
71.92488149999999
 31
0.0
  0
LINE
  5
115
330
1E
100
AcDbEntity
  8
CSLAYER1
  6
CONTINUOUS
 62
     3
100
AcDbLine
 10
38.45807999999999
 20
78.714297
 30
0.0
 11
38.45807999999999
 21
79.42488149999995
 31
0.0
  0
LINE
  5
116
330
1E
100
AcDbEntity
  8
CSLAYER1
  6
CONTINUOUS
 62
     3
100
AcDbLine
 10
38.45807999999999
 20
78.714297
 30
0.0
 11
35.95807999999999
 21
73.3530295
 31
0.0
  0
LINE
  5
117
330
1E
100
AcDbEntity
  8
CSLAYER1
  6
CONTINUOUS
 62
     3
100
AcDbLine
 10
35.95807999999999
 20
73.3530295
 30
0.0
 11
34.95807999999999
 21
71.92488149999999
 31
0.0
  0
LINE
  5
118
330
1E
100
AcDbEntity
  8
CSLAYER1
  6
CONTINUOUS
 62
     3
100
AcDbLine
 10
34.95807999999999
 20
64.42488149999995
 30
0.0
 11
34.95807999999999
 21
79.42488149999995
 31
0.0
  0
LINE
  5
119
330
1E
100
AcDbEntity
  8
CSLAYER1
  6
CONTINUOUS
 62
     3
100
AcDbLine
 10
34.95807999999999
 20
79.42488149999995
 30
0.0
 11
38.45807999999999
 21
79.42488149999995
 31
0.0
  0
LINE
  5
11A
330
1E
100
AcDbEntity
  8
CSLAYER1
  6
CONTINUOUS
 62
     3
100
AcDbLine
 10
38.45807999999999
 20
64.42488149999995
 30
0.0
 11
34.95807999999999
 21
64.42488149999995
 31
0.0
  0
LINE
  5
11B
330
1E
100
AcDbEntity
  8
CSLAYER1
  6
CONTINUOUS
 62
     3
100
AcDbLine
 10
96.71157499999997
 20
45.42488149999999
 30
0.0
 11
96.71157499999997
 21
42.42488149999998
 31
0.0
  0
LINE
  5
11C
330
1E
100
AcDbEntity
  8
CSLAYER1
  6
CONTINUOUS
 62
     3
100
AcDbLine
 10
96.21157499999997
 20
41.92488149999999
 30
0.0
 11
81.8769885
 21
41.92488149999999
 31
0.0
  0
ARC
  5
11D
330
1E
100
AcDbEntity
  8
CSLAYER1
  6
CONTINUOUS
 62
     3
100
AcDbCircle
 10
81.8769885
 20
41.4248815
 30
0.0
 40
0.5
100
AcDbArc
 50
90.0
 51
180.0
  0
LINE
  5
11E
330
1E
100
AcDbEntity
  8
CSLAYER1
  6
CONTINUOUS
 62
     3
100
AcDbLine
 10
81.37698849999999
 20
41.4248815
 30
0.0
 11
81.37698849999999
 21
38.42488149999999
 31
0.0
  0
LINE
  5
11F
330
1E
100
AcDbEntity
  8
CSLAYER1
  6
CONTINUOUS
 62
     3
100
AcDbLine
 10
85.01807999999995
 20
38.42488149999999
 30
0.0
 11
85.01807999999995
 21
41.4248815
 31
0.0
  0
LINE
  5
120
330
1E
100
AcDbEntity
  8
CSLAYER1
  6
CONTINUOUS
 62
     3
100
AcDbLine
 10
85.01807999999995
 20
41.4248815
 30
0.0
 11
85.5180799999999
 21
41.92488149999999
 31
0.0
  0
LINE
  5
121
330
1E
100
AcDbEntity
  8
CSLAYER1
  6
CONTINUOUS
 62
     3
100
AcDbLine
 10
92.51808
 20
41.92488149999999
 30
0.0
 11
93.01807999999999
 21
42.42488149999998
 31
0.0
  0
LINE
  5
122
330
1E
100
AcDbEntity
  8
CSLAYER1
  6
CONTINUOUS
 62
     3
100
AcDbLine
 10
93.01807999999999
 20
42.42488149999998
 30
0.0
 11
93.01807999999999
 21
45.42488149999999
 31
0.0
  0
ARC
  5
123
330
1E
100
AcDbEntity
  8
CSLAYER1
  6
CONTINUOUS
 62
     3
100
AcDbCircle
 10
96.21157499999997
 20
42.42488149999998
 30
0.0
 40
0.5
100
AcDbArc
 50
270.0
 51
0.0
  0
ARC
  5
124
330
1E
100
AcDbEntity
  8
CSLAYER1
  6
CONTINUOUS
 62
     3
100
AcDbCircle
 10
76.51807999999995
 20
43.3637905
 30
0.0
 40
1.5
100
AcDbArc
 50
273.38415
 51
0.0
  0
LINE
  5
125
330
1E
100
AcDbEntity
  8
CSLAYER1
  6
CENTER
 62
     4
100
AcDbLine
 10
33.14891949999999
 20
71.92488149999999
 30
0.0
 11
43.69407999999999
 21
71.92488149999999
 31
0.0
  0
LINE
  5
126
330
1E
100
AcDbEntity
  8
CSLAYER1
  6
CENTER
 62
     4
100
AcDbLine
 10
62.2330385
 20
71.92488149999999
 30
0.0
 11
65.01808
 21
71.92488149999999
 31
0.0
  0
LINE
  5
127
330
1E
100
AcDbEntity
  8
CSLAYER1
  6
CENTER
 62
     4
100
AcDbLine
 10
78.01808
 20
71.92488149999999
 30
0.0
 11
127.0793195
 21
71.92488149999999
 31
0.0
  0
LINE
  5
128
330
1E
100
AcDbEntity
  8
CSLAYER1
  6
CENTER
 62
     4
100
AcDbLine
 10
119.01808
 20
68.79154799999989
 30
0.0
 11
119.01808
 21
75.19154799999995
 31
0.0
  0
LINE
  5
129
330
1E
100
AcDbEntity
  8
CSLAYER1
  6
CENTER
 62
     4
100
AcDbLine
 10
102.0180799999999
 20
75.8253775
 30
0.0
 11
102.0180799999999
 21
67.95038249999994
 31
0.0
  0
LINE
  5
12A
330
1E
100
AcDbEntity
  8
CSLAYER1
  6
CENTER
 62
     4
100
AcDbLine
 10
89.01807999999995
 20
61.3842755
 30
0.0
 11
89.01807999999995
 21
81.97882099999999
 31
0.0
  0
LINE
  5
12B
330
1E
100
AcDbEntity
  8
CSLAYER1
  6
CENTER
 62
     4
100
AcDbLine
 10
89.01807999999995
 20
47.4485145
 30
0.0
 11
89.01807999999995
 21
36.60815649999999
 31
0.0
  0
LINE
  5
12C
330
1E
100
AcDbEntity
  8
CSLAYER1
  6
CENTER
 62
     4
100
AcDbLine
 10
96.21157499999997
 20
41.92488149999999
 30
0.0
 11
100.2978715
 21
41.92488149999999
 31
0.0
  0
LINE
  5
12D
330
1E
100
AcDbEntity
  8
CSLAYER1
  6
CENTER
 62
     4
100
AcDbLine
 10
81.7076145
 20
41.92488149999999
 30
0.0
 11
78.01808
 21
41.92488149999999
 31
0.0
  0
LINE
  5
12E
330
1E
100
AcDbEntity
  8
CSLAYER1
  6
DASHED
 62
     4
100
AcDbLine
 10
78.01808
 20
43.3637905
 30
0.0
 11
78.01808
 21
39.42488149999999
 31
0.0
  0
ARC
  5
12F
330
1E
100
AcDbEntity
  8
CSLAYER1
  6
DASHED
 62
     4
100
AcDbCircle
 10
77.01807999999996
 20
39.42488149999999
 30
0.0
 40
1.0
100
AcDbArc
 50
270.0
 51
0.0
  0
ARC
  5
130
330
1E
100
AcDbEntity
  8
CSLAYER1
  6
CONTINUOUS
 62
     3
100
AcDbCircle
 10
40.51808
 20
71.92488149999999
 30
0.0
 40
37.5
100
AcDbArc
 50
349.251914
 51
10.748086
  0
ARC
  5
131
330
1E
100
AcDbEntity
  8
CSLAYER1
  6
CONTINUOUS
 62
     3
100
AcDbCircle
 10
76.979611
 20
78.21429699999995
 30
0.0
 40
0.5
100
AcDbArc
 50
9.786899999999999
 51
90.0
  0
ARC
  5
132
330
1E
100
AcDbEntity
  8
CSLAYER1
  6
CONTINUOUS
 62
     3
100
AcDbCircle
 10
77.50643700000001
 20
72.85302950000001
 30
0.0
 40
0.5
100
AcDbArc
 50
1.437419999999999
 51
90.0
  0
ARC
  5
133
330
1E
100
AcDbEntity
  8
CSLAYER1
  6
CONTINUOUS
 62
     3
100
AcDbCircle
 10
77.50643700000001
 20
70.99673349999995
 30
0.0
 40
0.5
100
AcDbArc
 50
270.0
 51
358.5625799999998
  0
LINE
  5
134
330
1E
100
AcDbEntity
  8
CSLAYER1
  6
CONTINUOUS
 62
     3
100
AcDbLine
 10
66.0357075
 20
70.49673349999995
 30
0.0
 11
77.50643700000001
 21
70.49673349999995
 31
0.0
  0
LINE
  5
135
330
1E
100
AcDbEntity
  8
CSLAYER1
  6
CONTINUOUS
 62
     3
100
AcDbLine
 10
76.979611
 20
65.13546650000001
 30
0.0
 11
76.44929799999996
 21
65.13546650000001
 31
0.0
  0
ARC
  5
136
330
1E
100
AcDbEntity
  8
CSLAYER1
  6
CONTINUOUS
 62
     3
100
AcDbCircle
 10
76.979611
 20
65.63546650000001
 30
0.0
 40
0.5
100
AcDbArc
 50
270.0
 51
350.2130999999998
  0
POINT
  5
13B
330
1E
100
AcDbEntity
  8
CSLAYER1
 62
     3
100
AcDbPoint
 10
61.425987
 20
14.600329
 30
0.0
  0
LINE
  5
13C
330
1E
100
AcDbEntity
  8
CSLAYER1
  6
CONTINUOUS
 62
     3
100
AcDbLine
 10
50.33061549999995
 20
22.8413015
 30
0.0
 11
49.804462
 21
22.907591
 31
0.0
  0
LINE
  5
13D
330
1E
100
AcDbEntity
  8
CSLAYER1
  6
CONTINUOUS
 62
     3
100
AcDbLine
 10
54.78232649999995
 20
22.996641
 30
0.0
 11
51.74116349999994
 21
16.223664
 31
0.0
  0
LINE
  5
13E
330
1E
100
AcDbEntity
  8
CSLAYER1
  6
CONTINUOUS
 62
     3
100
AcDbLine
 10
51.6146275
 20
16.23960599999999
 30
0.0
 11
50.56014600000001
 21
16.3724585
 31
0.0
  0
LINE
  5
13F
330
1E
100
AcDbEntity
  8
CSLAYER1
  6
CONTINUOUS
 62
     3
100
AcDbLine
 10
50.5122625
 20
15.975329
 30
0.0
 11
37.614225
 21
17.600329
 31
0.0
  0
LINE
  5
140
330
1E
100
AcDbEntity
  8
CSLAYER1
  6
CONTINUOUS
 62
     3
100
AcDbLine
 10
37.614225
 20
17.600329
 30
0.0
 11
37.67672499999999
 21
18.0964075
 31
0.0
  0
LINE
  5
141
330
1E
100
AcDbEntity
  8
CSLAYER1
  6
CONTINUOUS
 62
     3
100
AcDbLine
 10
38.80238950000001
 20
18.89007199999999
 30
0.0
 11
50.183151
 21
17.45623099999999
 31
0.0
  0
ARC
  5
142
330
1E
100
AcDbEntity
  8
CSLAYER1
  6
CONTINUOUS
 62
     3
100
AcDbCircle
 10
51.42712750000001
 20
14.75137099999999
 30
0.0
 40
1.5
100
AcDbArc
 50
359.13456
 51
82.81924399999999
  0
LINE
  5
143
330
1E
100
AcDbEntity
  8
CSLAYER1
  6
CONTINUOUS
 62
     3
100
AcDbLine
 10
55.765001
 20
22.8728355
 30
0.0
 11
61.425987
 21
22.1596185
 31
0.0
  0
CIRCLE
  5
144
330
1E
100
AcDbEntity
  8
CSLAYER1
  6
CONTINUOUS
 62
     3
100
AcDbCircle
 10
61.425987
 20
14.600329
 30
0.0
 40
5.59999999999999
  0
CIRCLE
  5
145
330
1E
100
AcDbEntity
  8
CSLAYER1
  6
CONTINUOUS
 62
     3
100
AcDbCircle
 10
61.425987
 20
14.600329
 30
0.0
 40
2.049999999999998
  0
ARC
  5
146
330
1E
100
AcDbEntity
  8
CSLAYER1
  6
CONTINUOUS
 62
     3
100
AcDbCircle
 10
61.425987
 20
14.600329
 30
0.0
 40
8.5
100
AcDbArc
 50
125.253243
 51
180.8654399999999
  0
ARC
  5
147
330
1E
100
AcDbEntity
  8
CSLAYER1
  6
CONTINUOUS
 62
     3
100
AcDbCircle
 10
52.640001
 20
-1.931083
 30
0.0
 40
25.0
100
AcDbArc
 50
82.81924399999999
 51
126.7647639999999
  0
LINE
  5
148
330
1E
100
AcDbEntity
  8
CSLAYER1
  6
CONTINUOUS
 62
     3
100
AcDbLine
 10
16.73769749999999
 20
24.38974449999999
 30
0.0
 11
16.73769749999999
 21
25.100329
 31
0.0
  0
LINE
  5
149
330
1E
100
AcDbEntity
  8
CSLAYER1
  6
CONTINUOUS
 62
     3
100
AcDbLine
 10
16.73769749999999
 20
24.38974449999999
 30
0.0
 11
14.2376975
 21
19.02847699999999
 31
0.0
  0
LINE
  5
14A
330
1E
100
AcDbEntity
  8
CSLAYER1
  6
CONTINUOUS
 62
     3
100
AcDbLine
 10
14.2376975
 20
19.02847699999999
 30
0.0
 11
13.2376975
 21
17.600329
 31
0.0
  0
LINE
  5
14B
330
1E
100
AcDbEntity
  8
CSLAYER1
  6
CONTINUOUS
 62
     3
100
AcDbLine
 10
13.2376975
 20
17.600329
 30
0.0
 11
13.2376975
 21
25.100329
 31
0.0
  0
LINE
  5
14C
330
1E
100
AcDbEntity
  8
CSLAYER1
  6
CONTINUOUS
 62
     3
100
AcDbLine
 10
13.2376975
 20
25.100329
 30
0.0
 11
16.73769749999999
 21
25.100329
 31
0.0
  0
LINE
  5
14D
330
1E
100
AcDbEntity
  8
CSLAYER1
  6
CENTER
 62
     4
100
AcDbLine
 10
11.428537
 20
14.600329
 30
0.0
 11
21.9736975
 21
14.600329
 31
0.0
  0
LINE
  5
14E
330
1E
100
AcDbEntity
  8
CSLAYER1
  6
CENTER
 62
     4
100
AcDbLine
 10
34.6409455
 20
14.600329
 30
0.0
 11
67.819287
 21
14.600329
 31
0.0
  0
LINE
  5
14F
330
1E
100
AcDbEntity
  8
CSLAYER1
  6
CENTER
 62
     4
100
AcDbLine
 10
61.425987
 20
4.059722999999999
 30
0.0
 11
61.425987
 21
24.6542685
 31
0.0
  0
ARC
  5
150
330
1E
100
AcDbEntity
  8
CSLAYER1
  6
CONTINUOUS
 62
     3
100
AcDbCircle
 10
13.306385
 20
20.662829
 30
0.0
 40
37.5
100
AcDbArc
 50
352.819244
 51
3.567330999999998
  0
ARC
  5
151
330
1E
100
AcDbEntity
  8
CSLAYER1
  6
CONTINUOUS
 62
     3
100
AcDbCircle
 10
50.26811549999995
 20
22.3452235
 30
0.0
 40
0.5
100
AcDbArc
 50
2.606144
 51
82.81924399999999
  0
ARC
  5
152
330
1E
100
AcDbEntity
  8
CSLAYER1
  6
CONTINUOUS
 62
     3
100
AcDbCircle
 10
50.120651
 20
16.9601525
 30
0.0
 40
0.5
100
AcDbArc
 50
354.2566639999998
 51
82.81924399999999
  0
LINE
  5
153
330
1E
100
AcDbEntity
  8
CSLAYER1
  6
CONTINUOUS
 62
     3
100
AcDbLine
 10
50.33061549999995
 20
6.359356
 30
0.0
 11
49.804462
 21
6.293066999999995
 31
0.0
  0
LINE
  5
154
330
1E
100
AcDbEntity
  8
CSLAYER1
  6
CONTINUOUS
 62
     3
100
AcDbLine
 10
51.6146275
 20
12.961052
 30
0.0
 11
50.56014600000001
 21
12.8281995
 31
0.0
  0
LINE
  5
155
330
1E
100
AcDbEntity
  8
CSLAYER1
  6
CONTINUOUS
 62
     3
100
AcDbLine
 10
50.5122625
 20
13.225329
 30
0.0
 11
37.614225
 21
11.60032899999999
 31
0.0
  0
LINE
  5
156
330
1E
100
AcDbEntity
  8
CSLAYER1
  6
CONTINUOUS
 62
     3
100
AcDbLine
 10
37.614225
 20
11.60032899999999
 30
0.0
 11
37.67672499999999
 21
11.1042505
 31
0.0
  0
LINE
  5
157
330
1E
100
AcDbEntity
  8
CSLAYER1
  6
CONTINUOUS
 62
     3
100
AcDbLine
 10
38.80238950000001
 20
10.3105855
 30
0.0
 11
50.183151
 21
11.74442699999999
 31
0.0
  0
ARC
  5
158
330
1E
100
AcDbEntity
  8
CSLAYER1
  6
CONTINUOUS
 62
     3
100
AcDbCircle
 10
51.42712750000001
 20
14.449287
 30
0.0
 40
1.5
100
AcDbArc
 50
277.1807559999999
 51
0.8654399999999997
  0
LINE
  5
159
330
1E
100
AcDbEntity
  8
CSLAYER1
  6
CONTINUOUS
 62
     3
100
AcDbLine
 10
55.765001
 20
6.327822499999995
 30
0.0
 11
66.1673985
 21
7.638400999999995
 31
0.0
  0
ARC
  5
15A
330
1E
100
AcDbEntity
  8
CSLAYER1
  6
CONTINUOUS
 62
     3
100
AcDbCircle
 10
52.640001
 20
31.131741
 30
0.0
 40
25.0
100
AcDbArc
 50
233.2352359999999
 51
277.180756
  0
ARC
  5
15B
330
1E
100
AcDbEntity
  8
CSLAYER1
  6
CONTINUOUS
 62
     3
100
AcDbCircle
 10
13.306385
 20
8.537828999999995
 30
0.0
 40
37.5
100
AcDbArc
 50
356.4326689999998
 51
7.180755999999997
  0
ARC
  5
15C
330
1E
100
AcDbEntity
  8
CSLAYER1
  6
CONTINUOUS
 62
     3
100
AcDbCircle
 10
50.26811549999995
 20
6.8554345
 30
0.0
 40
0.5
100
AcDbArc
 50
277.180756
 51
357.393856
  0
ARC
  5
15D
330
1E
100
AcDbEntity
  8
CSLAYER1
  6
CONTINUOUS
 62
     3
100
AcDbCircle
 10
50.120651
 20
12.240505
 30
0.0
 40
0.5
100
AcDbArc
 50
277.1807559999999
 51
5.743336000000001
  0
LINE
  5
15E
330
1E
100
AcDbEntity
  8
CSLAYER1
  6
CONTINUOUS
 62
     3
100
AcDbLine
 10
56.51985999999995
 20
21.5415045
 30
0.0
 11
65.4492705
 21
22.6665045
 31
0.0
  0
LINE
  5
160
330
1E
100
AcDbEntity
  8
CSLAYER1
  6
CONTINUOUS
 62
     3
100
AcDbLine
 10
16.73769749999999
 20
4.810913499999999
 30
0.0
 11
16.73769749999999
 21
4.100329
 31
0.0
  0
LINE
  5
161
330
1E
100
AcDbEntity
  8
CSLAYER1
  6
CONTINUOUS
 62
     3
100
AcDbLine
 10
16.73769749999999
 20
4.810913499999999
 30
0.0
 11
14.2376975
 21
10.172181
 31
0.0
  0
LINE
  5
162
330
1E
100
AcDbEntity
  8
CSLAYER1
  6
CONTINUOUS
 62
     3
100
AcDbLine
 10
14.2376975
 20
10.172181
 30
0.0
 11
13.2376975
 21
11.60032899999999
 31
0.0
  0
LINE
  5
163
330
1E
100
AcDbEntity
  8
CSLAYER1
  6
CONTINUOUS
 62
     3
100
AcDbLine
 10
13.2376975
 20
11.60032899999999
 30
0.0
 11
13.2376975
 21
4.100329
 31
0.0
  0
LINE
  5
164
330
1E
100
AcDbEntity
  8
CSLAYER1
  6
CONTINUOUS
 62
     3
100
AcDbLine
 10
13.2376975
 20
4.100329
 30
0.0
 11
16.73769749999999
 21
4.100329
 31
0.0
  0
LINE
  5
165
330
1E
100
AcDbEntity
  8
CSLAYER1
  6
DOT
 62
     3
100
AcDbLine
 10
2.5
 20
0.5
 30
0.0
 11
142.0
 21
0.5
 31
0.0
  0
LINE
  5
166
330
1E
100
AcDbEntity
  8
CSLAYER1
  6
DOT
 62
     3
100
AcDbLine
 10
142.0
 20
0.5
 30
0.0
 11
142.0
 21
97.5
 31
0.0
  0
LINE
  5
167
330
1E
100
AcDbEntity
  8
CSLAYER1
  6
DOT
 62
     3
100
AcDbLine
 10
142.0
 20
97.5
 30
0.0
 11
2.5
 21
97.5
 31
0.0
  0
LINE
  5
168
330
1E
100
AcDbEntity
  8
CSLAYER1
  6
DOT
 62
     3
100
AcDbLine
 10
2.5
 20
97.5
 30
0.0
 11
2.5
 21
0.5
 31
0.0
  0
LINE
  5
169
330
1E
100
AcDbEntity
  8
CSLAYER1
  6
DOT
 62
     3
100
AcDbLine
 10
2.5
 20
49.0
 30
0.0
 11
0.5
 21
49.0
 31
0.0
  0
LINE
  5
16A
330
1E
100
AcDbEntity
  8
CSLAYER1
  6
DOT
 62
     3
100
AcDbLine
 10
142.0
 20
49.0
 30
0.0
 11
144.0
 21
49.0
 31
0.0
  0
LINE
  5
16B
330
1E
100
AcDbEntity
  8
CSLAYER1
  6
DOT
 62
     3
100
AcDbLine
 10
72.25
 20
97.5
 30
0.0
 11
72.25
 21
99.50000000000001
 31
0.0
  0
TEXT
  5
1AE
330
1E
100
AcDbEntity
  8
CSLAYER1
 62
     4
100
AcDbText
 10
75.51808149999999
 20
89.64283
 30
0.0
 40
1.5
  1
24
 41
1.199999999999965
 51
15.0
  7
FX_FONT
 72
     5
 11
78.51808149999991
 21
89.64283
 31
0.0
100
AcDbText
  0
LINE
  5
1AF
330
1E
100
AcDbEntity
  8
CSLAYER1
 62
     4
100
AcDbLine
 10
65.01808
 20
89.14282900000001
 30
0.0
 11
89.01807999999995
 21
89.14282900000001
 31
0.0
  0
LINE
  5
1B0
330
1E
100
AcDbEntity
  8
CSLAYER1
 62
     4
100
AcDbLine
 10
65.01808
 20
89.14282900000001
 30
0.0
 11
66.46696850000001
 21
89.53105749999997
 31
0.0
  0
LINE
  5
1B1
330
1E
100
AcDbEntity
  8
CSLAYER1
 62
     4
100
AcDbLine
 10
65.01808
 20
89.14282900000001
 30
0.0
 11
66.46696850000001
 21
88.75460049999997
 31
0.0
  0
LINE
  5
1B2
330
1E
100
AcDbEntity
  8
CSLAYER1
 62
     4
100
AcDbLine
 10
89.01807999999995
 20
89.14282900000001
 30
0.0
 11
87.56919100000001
 21
89.53105749999997
 31
0.0
  0
LINE
  5
1B3
330
1E
100
AcDbEntity
  8
CSLAYER1
 62
     4
100
AcDbLine
 10
89.01807999999995
 20
89.14282900000001
 30
0.0
 11
87.56919100000001
 21
88.75460049999997
 31
0.0
  0
LINE
  5
1B4
330
1E
100
AcDbEntity
  8
CSLAYER1
 62
     4
100
AcDbLine
 10
65.01808
 20
72.92488149999996
 30
0.0
 11
65.01808
 21
89.642829
 31
0.0
  0
LINE
  5
1B5
330
1E
100
AcDbEntity
  8
CSLAYER1
 62
     4
100
AcDbLine
 10
89.01807999999995
 20
82.47882099999996
 30
0.0
 11
89.01807999999995
 21
89.642829
 31
0.0
  0
TEXT
  5
1B6
330
1E
100
AcDbEntity
  8
CSLAYER1
 62
     4
100
AcDbText
 10
56.1256485
 20
68.924881
 30
0.0
 40
1.5
  1
(15)
 50
90.0
 41
1.2
 51
15.0
  7
FX_FONT
 72
     5
 11
56.1256485
 21
74.924881
 31
0.0
100
AcDbText
  0
LINE
  5
1B7
330
1E
100
AcDbEntity
  8
CSLAYER1
 62
     4
100
AcDbLine
 10
81.86743149999996
 20
64.42488149999995
 30
0.0
 11
56.12564549999995
 21
64.42488149999995
 31
0.0
  0
LINE
  5
1B8
330
1E
100
AcDbEntity
  8
CSLAYER1
 62
     4
100
AcDbLine
 10
81.86743149999996
 20
79.42488149999995
 30
0.0
 11
56.12564549999995
 21
79.42488149999995
 31
0.0
  0
LINE
  5
1B9
330
1E
100
AcDbEntity
  8
CSLAYER1
 62
     4
100
AcDbLine
 10
56.62564549999995
 20
64.42488149999995
 30
0.0
 11
56.62564549999995
 21
79.42488149999995
 31
0.0
  0
LINE
  5
1BA
330
1E
100
AcDbEntity
  8
CSLAYER1
 62
     4
100
AcDbLine
 10
56.62564549999995
 20
64.42488149999995
 30
0.0
 11
56.237417
 21
65.87377049999995
 31
0.0
  0
LINE
  5
1BB
330
1E
100
AcDbEntity
  8
CSLAYER1
 62
     4
100
AcDbLine
 10
56.62564549999995
 20
64.42488149999995
 30
0.0
 11
57.01387399999995
 21
65.87377049999995
 31
0.0
  0
LINE
  5
1BC
330
1E
100
AcDbEntity
  8
CSLAYER1
 62
     4
100
AcDbLine
 10
56.62564549999995
 20
79.42488149999995
 30
0.0
 11
56.237417
 21
77.97599299999991
 31
0.0
  0
LINE
  5
1BD
330
1E
100
AcDbEntity
  8
CSLAYER1
 62
     4
100
AcDbLine
 10
56.62564549999995
 20
79.42488149999995
 30
0.0
 11
57.01387399999995
 21
77.97599299999991
 31
0.0
  0
TEXT
  5
1BE
330
1E
100
AcDbEntity
  8
CSLAYER1
 62
     4
100
AcDbText
 10
58.877762
 20
72.591278
 30
0.0
 40
1.5
  1
(1)
 50
90.0
 41
1.285714285714285
 51
15.0
  7
FX_FONT
 72
     5
 11
58.877762
 21
77.091278
 31
0.0
100
AcDbText
  0
LINE
  5
1BF
330
1E
100
AcDbEntity
  8
CSLAYER1
 62
     4
100
AcDbLine
 10
64.51807999999996
 20
71.4248815
 30
0.0
 11
59.12564549999999
 21
71.4248815
 31
0.0
  0
LINE
  5
1C0
330
1E
100
AcDbEntity
  8
CSLAYER1
 62
     4
100
AcDbLine
 10
64.51807999999996
 20
72.42488149999999
 30
0.0
 11
59.12564549999999
 21
72.42488149999999
 31
0.0
  0
LINE
  5
1C1
330
1E
100
AcDbEntity
  8
CSLAYER1
 62
     4
100
AcDbLine
 10
59.62564549999999
 20
71.4248815
 30
0.0
 11
59.62564549999999
 21
72.42488149999999
 31
0.0
  0
LINE
  5
1C2
330
1E
100
AcDbEntity
  8
CSLAYER1
 62
     4
100
AcDbLine
 10
59.62564549999999
 20
68.4248815
 30
0.0
 11
59.62564549999999
 21
71.4248815
 31
0.0
  0
LINE
  5
1C3
330
1E
100
AcDbEntity
  8
CSLAYER1
 62
     4
100
AcDbLine
 10
59.62564549999999
 20
71.4248815
 30
0.0
 11
59.237417
 21
69.975993
 31
0.0
  0
LINE
  5
1C4
330
1E
100
AcDbEntity
  8
CSLAYER1
 62
     4
100
AcDbLine
 10
59.62564549999999
 20
71.4248815
 30
0.0
 11
60.013874
 21
69.975993
 31
0.0
  0
LINE
  5
1C5
330
1E
100
AcDbEntity
  8
CSLAYER1
 62
     4
100
AcDbLine
 10
59.62564549999999
 20
72.42488149999999
 30
0.0
 11
59.62564549999999
 21
75.42488149999996
 31
0.0
  0
LINE
  5
1C6
330
1E
100
AcDbEntity
  8
CSLAYER1
 62
     4
100
AcDbLine
 10
59.62564549999999
 20
72.42488149999999
 30
0.0
 11
59.237417
 21
73.8737704999999
 31
0.0
  0
LINE
  5
1C7
330
1E
100
AcDbEntity
  8
CSLAYER1
 62
     4
100
AcDbLine
 10
59.62564549999999
 20
72.42488149999999
 30
0.0
 11
60.013874
 21
73.8737704999999
 31
0.0
  0
TEXT
  5
1C8
330
1E
100
AcDbEntity
  8
CSLAYER1
 62
     4
100
AcDbText
 10
74.07786299999995
 20
65.8471325
 30
0.0
 40
1.5
  1
R25
 50
71.77545192231481
 41
1.124999958591498
 51
15.0
  7
FX_FONT
 72
     5
 11
75.4852014999999
 21
70.12140399999996
 31
0.0
100
AcDbText
  0
LINE
  5
1C9
330
1E
100
AcDbEntity
  8
CSLAYER1
 62
     4
100
AcDbLine
 10
74.5488824999999
 20
65.67892849999999
 30
0.0
 11
77.56254300000001
 21
74.83180849999995
 31
0.0
  0
LINE
  5
1CA
330
1E
100
AcDbEntity
  8
CSLAYER1
 62
     4
100
AcDbLine
 10
74.5488824999999
 20
65.67892849999999
 30
0.0
 11
74.63325649999996
 21
67.1765535
 31
0.0
  0
LINE
  5
1CB
330
1E
100
AcDbEntity
  8
CSLAYER1
 62
     4
100
AcDbLine
 10
74.5488824999999
 20
65.67892849999999
 30
0.0
 11
75.37076500000001
 21
66.933723
 31
0.0
  0
LINE
  5
1CC
330
1E
100
AcDbEntity
  8
CSLAYER1
  6
CONTINUOUS
 62
     4
100
AcDbLine
 10
88.487501
 20
69.94473349999996
 30
0.0
 11
85.05671900000001
 21
57.14088149999994
 31
0.0
  0
LINE
  5
1CD
330
1E
100
AcDbEntity
  8
CSLAYER1
  6
CONTINUOUS
 62
     4
100
AcDbLine
 10
88.487501
 20
69.94473349999996
 30
0.0
 11
88.487501
 21
68.44473349999995
 31
0.0
  0
LINE
  5
1CE
330
1E
100
AcDbEntity
  8
CSLAYER1
  6
CONTINUOUS
 62
     4
100
AcDbLine
 10
88.487501
 20
69.94473349999996
 30
0.0
 11
87.73750099999997
 21
68.6456955
 31
0.0
  0
LINE
  5
1CF
330
1E
100
AcDbEntity
  8
CSLAYER1
  6
CONTINUOUS
 62
     4
100
AcDbLine
 10
85.05671900000001
 20
57.14088149999994
 30
0.0
 11
78.056719
 21
57.14088149999994
 31
0.0
  0
TEXT
  5
1D0
330
1E
100
AcDbEntity
  8
CSLAYER1
 62
     4
100
AcDbText
 10
78.5567245
 20
57.64088050000001
 30
0.0
 40
1.5
  1
%%c4.1
 41
1.142857142857142
 51
15.0
  7
FX_FONT
 72
     5
 11
84.55672449999999
 21
57.64088050000001
 31
0.0
100
AcDbText
  0
TEXT
  5
1D1
330
1E
100
AcDbEntity
  8
CSLAYER1
 62
     4
100
AcDbText
 10
54.0322645
 20
41.299881
 30
0.0
 40
1.5
  1
7  
 50
90.0
 41
1.363636363636363
 51
15.0
  7
FX_FONT
 72
     5
 11
54.0322645
 21
45.799881
 31
0.0
100
AcDbText
  0
TEXT
  5
1D2
330
1E
100
AcDbEntity
  8
CSLAYER1
 62
     4
100
AcDbText
 10
53.2822645
 20
45.799881
 30
0.0
 40
0.75
  1
  0
 50
90.0
 41
1.607142857142857
 51
15.0
  7
FX_FONT
 72
     5
 11
53.2822645
 21
48.049881
 31
0.0
100
AcDbText
  0
TEXT
  5
1D3
330
1E
100
AcDbEntity
  8
CSLAYER1
 62
     4
100
AcDbText
 10
54.0322645
 20
45.799881
 30
0.0
 40
0.75
  1
-0.15
 50
90.0
 41
1.071428571428571
 51
15.0
  7
FX_FONT
 72
     5
 11
54.0322645
 21
49.549881
 31
0.0
100
AcDbText
  0
LINE
  5
1D4
330
1E
100
AcDbEntity
  8
CSLAYER1
 62
     4
100
AcDbLine
 10
64.51807999999996
 20
38.42488149999999
 30
0.0
 11
54.03226399999995
 21
38.42488149999999
 31
0.0
  0
LINE
  5
1D5
330
1E
100
AcDbEntity
  8
CSLAYER1
 62
     4
100
AcDbLine
 10
77.51808
 20
45.42488149999999
 30
0.0
 11
54.03226399999995
 21
45.42488149999999
 31
0.0
  0
LINE
  5
1D6
330
1E
100
AcDbEntity
  8
CSLAYER1
 62
     4
100
AcDbLine
 10
54.53226399999995
 20
38.42488149999999
 30
0.0
 11
54.53226399999995
 21
45.42488149999999
 31
0.0
  0
LINE
  5
1D7
330
1E
100
AcDbEntity
  8
CSLAYER1
 62
     4
100
AcDbLine
 10
54.53226399999995
 20
38.42488149999999
 30
0.0
 11
54.14403549999995
 21
39.8737705
 31
0.0
  0
LINE
  5
1D8
330
1E
100
AcDbEntity
  8
CSLAYER1
 62
     4
100
AcDbLine
 10
54.53226399999995
 20
38.42488149999999
 30
0.0
 11
54.9204925
 21
39.8737705
 31
0.0
  0
LINE
  5
1D9
330
1E
100
AcDbEntity
  8
CSLAYER1
 62
     4
100
AcDbLine
 10
54.53226399999995
 20
45.42488149999999
 30
0.0
 11
54.14403549999995
 21
43.975993
 31
0.0
  0
LINE
  5
1DA
330
1E
100
AcDbEntity
  8
CSLAYER1
 62
     4
100
AcDbLine
 10
54.53226399999995
 20
45.42488149999999
 30
0.0
 11
54.9204925
 21
43.975993
 31
0.0
  0
TEXT
  5
1DB
330
1E
100
AcDbEntity
  8
CSLAYER1
 62
     4
100
AcDbText
 10
56.86505149999995
 20
29.39185349999999
 30
0.0
 40
1.5
  1
(3.5)
 50
90.0
 41
1.153846153846152
 51
15.0
  7
FX_FONT
 72
     5
 11
56.86505149999995
 21
36.89185349999998
 31
0.0
100
AcDbText
  0
LINE
  5
1DC
330
1E
100
AcDbEntity
  8
CSLAYER1
 62
     4
100
AcDbLine
 10
76.44180199999995
 20
41.92488149999999
 30
0.0
 11
56.927474
 21
41.92488149999999
 31
0.0
  0
LINE
  5
1DD
330
1E
100
AcDbEntity
  8
CSLAYER1
 62
     4
100
AcDbLine
 10
57.42747399999999
 20
38.42488149999999
 30
0.0
 11
57.42747399999999
 21
41.92488149999999
 31
0.0
  0
LINE
  5
1DE
330
1E
100
AcDbEntity
  8
CSLAYER1
 62
     4
100
AcDbLine
 10
57.42747399999999
 20
33.4933665
 30
0.0
 11
57.42747399999999
 21
38.42488149999999
 31
0.0
  0
LINE
  5
1DF
330
1E
100
AcDbEntity
  8
CSLAYER1
 62
     4
100
AcDbLine
 10
57.42747399999999
 20
38.42488149999999
 30
0.0
 11
57.03924549999989
 21
36.975993
 31
0.0
  0
LINE
  5
1E0
330
1E
100
AcDbEntity
  8
CSLAYER1
 62
     4
100
AcDbLine
 10
57.42747399999999
 20
38.42488149999999
 30
0.0
 11
57.81570249999995
 21
36.975993
 31
0.0
  0
LINE
  5
1E1
330
1E
100
AcDbEntity
  8
CSLAYER1
 62
     4
100
AcDbLine
 10
57.42747399999999
 20
41.92488149999999
 30
0.0
 11
57.42747399999999
 21
44.92488149999998
 31
0.0
  0
LINE
  5
1E2
330
1E
100
AcDbEntity
  8
CSLAYER1
 62
     4
100
AcDbLine
 10
57.42747399999999
 20
41.92488149999999
 30
0.0
 11
57.03924549999989
 21
43.37377049999999
 31
0.0
  0
LINE
  5
1E3
330
1E
100
AcDbEntity
  8
CSLAYER1
 62
     4
100
AcDbLine
 10
57.42747399999999
 20
41.92488149999999
 30
0.0
 11
57.81570249999995
 21
43.37377049999999
 31
0.0
  0
TEXT
  5
1E4
330
1E
100
AcDbEntity
  8
CSLAYER1
 62
     4
100
AcDbText
 10
65.76808149999995
 20
35.23910150000001
 30
0.0
 40
1.5
  1
切刃部有効12
 41
0.9130434782608698
 51
15.0
  7
FX_FONT
 72
     5
 11
76.26808149999995
 21
35.23910150000001
 31
0.0
100
AcDbText
  0
LINE
  5
1E5
330
1E
100
AcDbEntity
  8
CSLAYER1
 62
     4
100
AcDbLine
 10
65.01808
 20
34.7391015
 30
0.0
 11
77.01807999999996
 21
34.7391015
 31
0.0
  0
LINE
  5
1E6
330
1E
100
AcDbEntity
  8
CSLAYER1
 62
     4
100
AcDbLine
 10
65.01808
 20
34.7391015
 30
0.0
 11
66.46696850000001
 21
35.12733
 31
0.0
  0
LINE
  5
1E7
330
1E
100
AcDbEntity
  8
CSLAYER1
 62
     4
100
AcDbLine
 10
65.01808
 20
34.7391015
 30
0.0
 11
66.46696850000001
 21
34.350873
 31
0.0
  0
LINE
  5
1E8
330
1E
100
AcDbEntity
  8
CSLAYER1
 62
     4
100
AcDbLine
 10
77.01807999999996
 20
34.7391015
 30
0.0
 11
75.569191
 21
35.12733
 31
0.0
  0
LINE
  5
1E9
330
1E
100
AcDbEntity
  8
CSLAYER1
 62
     4
100
AcDbLine
 10
77.01807999999996
 20
34.7391015
 30
0.0
 11
75.569191
 21
34.350873
 31
0.0
  0
LINE
  5
1EA
330
1E
100
AcDbEntity
  8
CSLAYER1
 62
     4
100
AcDbLine
 10
65.01808
 20
37.9248815
 30
0.0
 11
65.01808
 21
34.2391015
 31
0.0
  0
LINE
  5
1EB
330
1E
100
AcDbEntity
  8
CSLAYER1
 62
     4
100
AcDbLine
 10
77.01807999999996
 20
37.9248815
 30
0.0
 11
77.01807999999996
 21
34.2391015
 31
0.0
  0
TEXT
  5
1EC
330
1E
100
AcDbEntity
  8
CSLAYER1
 62
     4
100
AcDbText
 10
82.01808149999996
 20
50.21081149999996
 30
0.0
 40
1.5
  1
11
 41
1.333333333333333
 51
15.0
  7
FX_FONT
 72
     5
 11
85.01808149999995
 21
50.21081149999996
 31
0.0
100
AcDbText
  0
LINE
  5
1ED
330
1E
100
AcDbEntity
  8
CSLAYER1
 62
     4
100
AcDbLine
 10
78.01808
 20
45.9248815
 30
0.0
 11
78.01808
 21
50.21081299999995
 31
0.0
  0
LINE
  5
1EE
330
1E
100
AcDbEntity
  8
CSLAYER1
 62
     4
100
AcDbLine
 10
89.01807999999995
 20
47.9485145
 30
0.0
 11
89.01807999999995
 21
50.21081299999995
 31
0.0
  0
LINE
  5
1EF
330
1E
100
AcDbEntity
  8
CSLAYER1
 62
     4
100
AcDbLine
 10
78.01808
 20
49.710813
 30
0.0
 11
89.01807999999995
 21
49.710813
 31
0.0
  0
LINE
  5
1F0
330
1E
100
AcDbEntity
  8
CSLAYER1
 62
     4
100
AcDbLine
 10
78.01808
 20
49.710813
 30
0.0
 11
79.46696850000001
 21
50.09904149999996
 31
0.0
  0
LINE
  5
1F1
330
1E
100
AcDbEntity
  8
CSLAYER1
 62
     4
100
AcDbLine
 10
78.01808
 20
49.710813
 30
0.0
 11
79.46696850000001
 21
49.32258449999999
 31
0.0
  0
LINE
  5
1F2
330
1E
100
AcDbEntity
  8
CSLAYER1
 62
     4
100
AcDbLine
 10
89.01807999999995
 20
49.710813
 30
0.0
 11
87.56919100000001
 21
50.09904149999996
 31
0.0
  0
LINE
  5
1F3
330
1E
100
AcDbEntity
  8
CSLAYER1
 62
     4
100
AcDbLine
 10
89.01807999999995
 20
49.710813
 30
0.0
 11
87.56919100000001
 21
49.32258449999999
 31
0.0
  0
TEXT
  5
1F4
330
1E
100
AcDbEntity
  8
CSLAYER1
 62
     4
100
AcDbText
 10
31.571718
 20
13.8503295
 30
0.0
 40
1.5
  1
6
 50
90.0
 41
1.5
 51
15.0
  7
FX_FONT
 72
     5
 11
31.571718
 21
15.3503295
 31
0.0
100
AcDbText
  0
LINE
  5
1F5
330
1E
100
AcDbEntity
  8
CSLAYER1
 62
     4
100
AcDbLine
 10
32.0717185
 20
11.60032899999999
 30
0.0
 11
32.0717185
 21
17.600329
 31
0.0
  0
LINE
  5
1F6
330
1E
100
AcDbEntity
  8
CSLAYER1
 62
     4
100
AcDbLine
 10
32.0717185
 20
11.60032899999999
 30
0.0
 11
31.68349
 21
13.0492175
 31
0.0
  0
LINE
  5
1F7
330
1E
100
AcDbEntity
  8
CSLAYER1
 62
     4
100
AcDbLine
 10
32.0717185
 20
11.60032899999999
 30
0.0
 11
32.459947
 21
13.0492175
 31
0.0
  0
LINE
  5
1F8
330
1E
100
AcDbEntity
  8
CSLAYER1
 62
     4
100
AcDbLine
 10
32.0717185
 20
17.600329
 30
0.0
 11
31.68349
 21
16.15144
 31
0.0
  0
LINE
  5
1F9
330
1E
100
AcDbEntity
  8
CSLAYER1
 62
     4
100
AcDbLine
 10
32.0717185
 20
17.600329
 30
0.0
 11
32.459947
 21
16.15144
 31
0.0
  0
LINE
  5
1FA
330
1E
100
AcDbEntity
  8
CSLAYER1
 62
     4
100
AcDbLine
 10
37.11422499999999
 20
11.60032899999999
 30
0.0
 11
31.5717185
 21
11.60032899999999
 31
0.0
  0
LINE
  5
1FB
330
1E
100
AcDbEntity
  8
CSLAYER1
 62
     4
100
AcDbLine
 10
37.11422499999999
 20
17.600329
 30
0.0
 11
31.5717185
 21
17.600329
 31
0.0
  0
ENDSEC
  0
SECTION
  2
OBJECTS
  0
DICTIONARY
  5
C
330
0
100
AcDbDictionary
  3
ACAD_GROUP
350
D
  3
ACAD_LAYOUT
350
19
  3
ACAD_MLINESTYLE
350
16
  3
ACAD_PLOTSETTINGS
350
18
1001
ACAD
1000
TREAT_AS_HARD
1070
     0
1000
TREAT_AS_HARD
1070
     0
1000
TREAT_AS_HARD
1070
     0
  0
DICTIONARY
  5
175
330
1E
100
AcDbDictionary
  3
ACAD_LAYOUTSELFREF
350
200
1001
ACAD
1000
TREAT_AS_HARD
1070
     0
1000
TREAT_AS_HARD
1070
     0
  0
DICTIONARY
  5
173
330
1A
100
AcDbDictionary
  3
ACAD_LAYOUTSELFREF
350
1FF
1001
ACAD
1000
TREAT_AS_HARD
1070
     0
1000
TREAT_AS_HARD
1070
     0
  0
DICTIONARY
  5
D
102
{ACAD_REACTORS
330
C
102
}
330
C
100
AcDbDictionary
1001
ACAD
1000
TREAT_AS_HARD
1070
     0
1000
TREAT_AS_HARD
1070
     0
1000
TREAT_AS_HARD
1070
     0
  0
DICTIONARY
  5
19
102
{ACAD_REACTORS
330
C
102
}
330
C
100
AcDbDictionary
1001
ACAD
1000
TREAT_AS_HARD
1070
     0
1000
TREAT_AS_HARD
1070
     0
1000
TREAT_AS_HARD
1070
     0
  0
DICTIONARY
  5
16
102
{ACAD_REACTORS
330
C
102
}
330
C
100
AcDbDictionary
  3
STANDARD
350
17
1001
ACAD
1000
TREAT_AS_HARD
1070
     0
1000
TREAT_AS_HARD
1070
     0
1000
TREAT_AS_HARD
1070
     0
  0
DICTIONARY
  5
18
102
{ACAD_REACTORS
330
C
102
}
330
C
100
AcDbDictionary
1001
ACAD
1000
TREAT_AS_HARD
1070
     0
1000
TREAT_AS_HARD
1070
     0
1000
TREAT_AS_HARD
1070
     0
  0
XRECORD
  5
200
102
{ACAD_REACTORS
330
175
102
}
330
175
100
AcDbXrecord
340
1E
  0
XRECORD
  5
1FF
102
{ACAD_REACTORS
330
173
102
}
330
173
100
AcDbXrecord
340
1A
  0
MLINESTYLE
  5
17
102
{ACAD_REACTORS
330
16
102
}
330
16
100
AcDbMlineStyle
  2
STANDARD
 70
     0
  3

 62
   256
 51
90.0
 52
90.0
 71
     2
 49
0.5
 62
   256
  6
BYLAYER
 49
-0.5
 62
   256
  6
BYLAYER
  0
ENDSEC
  0
EOF
