  0
SECTION
  2
HEADER
  9
$ACADVER
  1
AC1012
  9
$DWGCODEPAGE
  3
dos932
  9
$INSBASE
 10
0.0
 20
0.0
 30
0.0
  9
$EXTMIN
 10
0.4894416100455601
 20
0.4902653820932415
 30
-0.0000000349181948
  9
$EXTMAX
 10
144.0134587653603
 20
99.50454747945139
 30
0.0000000814935747
  9
$LIMMIN
 10
0.0
 20
0.0
  9
$LIMMAX
 10
297.0
 20
210.0
  9
$ORTHOMODE
 70
     0
  9
$REGENMODE
 70
     1
  9
$FILLMODE
 70
     1
  9
$QTEXTMODE
 70
     0
  9
$MIRRTEXT
 70
     1
  9
$DRAGMODE
 70
     2
  9
$LTSCALE
 40
15.0
  9
$OSMODE
 70
    37
  9
$ATTMODE
 70
     1
  9
$TEXTSIZE
 40
0.2
  9
$TRACEWID
 40
0.05
  9
$TEXTSTYLE
  7
GOTHIC
  9
$CLAYER
  8
CSLAYER1
  9
$CELTYPE
  6
BYLAYER
  9
$CECOLOR
 62
   256
  9
$CELTSCALE
 40
1.0
  9
$DELOBJ
 70
     1
  9
$DISPSILH
 70
     0
  9
$DIMSCALE
 40
1.0
  9
$DIMASZ
 40
0.18
  9
$DIMEXO
 40
0.0625
  9
$DIMDLI
 40
0.38
  9
$DIMRND
 40
0.0
  9
$DIMDLE
 40
0.0
  9
$DIMEXE
 40
0.18
  9
$DIMTP
 40
0.0
  9
$DIMTM
 40
0.0
  9
$DIMTXT
 40
0.18
  9
$DIMCEN
 40
0.09
  9
$DIMTSZ
 40
0.0
  9
$DIMTOL
 70
     0
  9
$DIMLIM
 70
     0
  9
$DIMTIH
 70
     1
  9
$DIMTOH
 70
     1
  9
$DIMSE1
 70
     0
  9
$DIMSE2
 70
     0
  9
$DIMTAD
 70
     0
  9
$DIMZIN
 70
     0
  9
$DIMBLK
  1

  9
$DIMASO
 70
     1
  9
$DIMSHO
 70
     1
  9
$DIMPOST
  1

  9
$DIMAPOST
  1

  9
$DIMALT
 70
     0
  9
$DIMALTD
 70
     2
  9
$DIMALTF
 40
25.4
  9
$DIMLFAC
 40
1.0
  9
$DIMTOFL
 70
     0
  9
$DIMTVP
 40
0.0
  9
$DIMTIX
 70
     0
  9
$DIMSOXD
 70
     0
  9
$DIMSAH
 70
     0
  9
$DIMBLK1
  1

  9
$DIMBLK2
  1

  9
$DIMSTYLE
  2
STANDARD
  9
$DIMCLRD
 70
     0
  9
$DIMCLRE
 70
     0
  9
$DIMCLRT
 70
     0
  9
$DIMTFAC
 40
1.0
  9
$DIMGAP
 40
0.09
  9
$DIMJUST
 70
     0
  9
$DIMSD1
 70
     0
  9
$DIMSD2
 70
     0
  9
$DIMTOLJ
 70
     1
  9
$DIMTZIN
 70
     0
  9
$DIMALTZ
 70
     0
  9
$DIMALTTZ
 70
     0
  9
$DIMFIT
 70
     3
  9
$DIMUPT
 70
     0
  9
$DIMUNIT
 70
     2
  9
$DIMDEC
 70
     4
  9
$DIMTDEC
 70
     4
  9
$DIMALTU
 70
     2
  9
$DIMALTTD
 70
     2
  9
$DIMTXSTY
  7
STANDARD
  9
$DIMAUNIT
 70
     0
  9
$LUNITS
 70
     2
  9
$LUPREC
 70
     4
  9
$SKETCHINC
 40
0.1
  9
$FILLETRAD
 40
0.0
  9
$AUNITS
 70
     0
  9
$AUPREC
 70
     0
  9
$MENU
  1
ACAD
  9
$ELEVATION
 40
0.0
  9
$PELEVATION
 40
0.0
  9
$THICKNESS
 40
0.0
  9
$LIMCHECK
 70
     0
  9
$BLIPMODE
 70
     1
  9
$CHAMFERA
 40
0.0
  9
$CHAMFERB
 40
0.0
  9
$CHAMFERC
 40
0.0
  9
$CHAMFERD
 40
0.0
  9
$SKPOLY
 70
     0
  9
$TDCREATE
 40
2453476.999999999
  9
$TDUPDATE
 40
2453575.544342684
  9
$TDINDWG
 40
0.0011251157
  9
$TDUSRTIMER
 40
0.0011248843
  9
$USRTIMER
 70
     1
  9
$ANGBASE
 50
0.0
  9
$ANGDIR
 70
     0
  9
$PDMODE
 70
     0
  9
$PDSIZE
 40
0.0
  9
$PLINEWID
 40
0.0
  9
$COORDS
 70
     0
  9
$SPLFRAME
 70
     0
  9
$SPLINETYPE
 70
     6
  9
$SPLINESEGS
 70
     8
  9
$ATTDIA
 70
     0
  9
$ATTREQ
 70
     1
  9
$HANDLING
 70
 22529
  9
$HANDSEED
  5
23C
  9
$SURFTAB1
 70
     6
  9
$SURFTAB2
 70
     6
  9
$SURFTYPE
 70
     6
  9
$SURFU
 70
     6
  9
$SURFV
 70
     6
  9
$UCSNAME
  2

  9
$UCSORG
 10
0.0
 20
0.0
 30
0.0
  9
$UCSXDIR
 10
1.0
 20
0.0
 30
0.0
  9
$UCSYDIR
 10
0.0
 20
1.0
 30
0.0
  9
$PUCSNAME
  2

  9
$PUCSORG
 10
0.0
 20
0.0
 30
0.0
  9
$PUCSXDIR
 10
1.0
 20
0.0
 30
0.0
  9
$PUCSYDIR
 10
0.0
 20
1.0
 30
0.0
  9
$USERI1
 70
     0
  9
$USERI2
 70
     0
  9
$USERI3
 70
     0
  9
$USERI4
 70
     0
  9
$USERI5
 70
     0
  9
$USERR1
 40
0.0
  9
$USERR2
 40
0.0
  9
$USERR3
 40
0.0
  9
$USERR4
 40
0.0
  9
$USERR5
 40
0.0
  9
$WORLDVIEW
 70
     1
  9
$SHADEDGE
 70
     3
  9
$SHADEDIF
 70
    70
  9
$TILEMODE
 70
     1
  9
$MAXACTVP
 70
    64
  9
$PINSBASE
 10
0.0
 20
0.0
 30
0.0
  9
$PLIMCHECK
 70
     0
  9
$PEXTMIN
 10
1.000000000000000E+20
 20
1.000000000000000E+20
 30
1.000000000000000E+20
  9
$PEXTMAX
 10
-1.000000000000000E+20
 20
-1.000000000000000E+20
 30
-1.000000000000000E+20
  9
$PLIMMIN
 10
0.0
 20
0.0
  9
$PLIMMAX
 10
12.0
 20
9.0
  9
$UNITMODE
 70
     0
  9
$VISRETAIN
 70
     1
  9
$PLINEGEN
 70
     0
  9
$PSLTSCALE
 70
     1
  9
$TREEDEPTH
 70
  3020
  9
$PICKSTYLE
 70
     3
  9
$CMLSTYLE
  2
STANDARD
  9
$CMLJUST
 70
     0
  9
$CMLSCALE
 40
1.0
  9
$SAVEIMAGES
 70
     1
  0
ENDSEC
  0
SECTION
  2
CLASSES
  0
CLASS
  1
ACDBDICTIONARYWDFLT
  2
AcDbDictionaryWithDefault
  3
AutoCAD 2000
 90
    32768
280
     0
281
     0
  0
CLASS
  1
ACDBPLACEHOLDER
  2
AcDbPlaceHolder
  3
AutoCAD 2000
 90
    32768
280
     0
281
     0
  0
CLASS
  1
LAYOUT
  2
AcDbLayout
  3
AutoCAD 2000
 90
    32768
280
     0
281
     0
  0
CLASS
  1
DICTIONARYVAR
  2
AcDbDictionaryVar
  3
AutoCAD 2000
 90
    32768
280
     0
281
     0
  0
CLASS
  1
LONG_TRANSACTION
  2
AcDbLongTransaction
  3
AutoCAD 2000
 90
    32768
280
     0
281
     0
  0
CLASS
  1
LWPOLYLINE
  2
AcDbPolyline
  3
AutoCAD 2000
 90
    32768
280
     0
281
     1
  0
CLASS
  1
HATCH
  2
AcDbHatch
  3
AutoCAD 2000
 90
    32768
280
     0
281
     1
  0
CLASS
  1
XRECORD
  2
AcDbXrecord
  3
AutoCAD 2000
 90
    32768
280
     0
281
     0
  0
CLASS
  1
LONG_TRANSACTION
  2
AcDbLongTransaction
  3
AutoCAD 2000
 90
    32768
280
     0
281
     0
  0
CLASS
  1
LWPOLYLINE
  2
AcDbPolyline
  3
AutoCAD 2000
 90
    32768
280
     0
281
     1
  0
CLASS
  1
HATCH
  2
AcDbHatch
  3
AutoCAD 2000
 90
    32768
280
     0
281
     1
  0
CLASS
  1
XRECORD
  2
AcDbXrecord
  3
AutoCAD 2000
 90
    32768
280
     0
281
     0
  0
CLASS
  1
LONG_TRANSACTION
  2
AcDbLongTransaction
  3
AutoCAD 2000
 90
    32768
280
     0
281
     0
  0
CLASS
  1
LWPOLYLINE
  2
AcDbPolyline
  3
AutoCAD 2000
 90
    32768
280
     0
281
     1
  0
CLASS
  1
HATCH
  2
AcDbHatch
  3
AutoCAD 2000
 90
    32768
280
     0
281
     1
  0
CLASS
  1
XRECORD
  2
AcDbXrecord
  3
AutoCAD 2000
 90
    32768
280
     0
281
     0
  0
ENDSEC
  0
SECTION
  2
TABLES
  0
TABLE
  2
VPORT
  5
8
330
0
100
AcDbSymbolTable
 70
     2
  0
VPORT
  5
239
330
8
100
AcDbSymbolTableRecord
100
AcDbViewportTableRecord
  2
*ACTIVE
 70
     0
 10
0.0
 20
0.0
 11
1.0
 21
1.0
 12
72.25145018770297
 22
49.99740643077231
 13
0.0
 23
0.0
 14
1.0
 24
1.0
 15
0.0
 25
0.0
 16
0.0
 26
0.0
 36
1.0
 17
0.0
 27
0.0
 37
0.0
 40
99.73264448258687
 41
1.458837772397094
 42
50.0
 43
0.0
 44
0.0
 50
0.0
 51
0.0
 71
     0
 72
   100
 73
     1
 74
     1
 75
     0
 76
     0
 77
     0
 78
     0
  0
ENDTAB
  0
TABLE
  2
LTYPE
  5
5
330
0
100
AcDbSymbolTable
 70
     4
  0
LTYPE
  5
13
330
5
100
AcDbSymbolTableRecord
100
AcDbLinetypeTableRecord
  2
BYBLOCK
 70
     0
  3

 72
    65
 73
     0
 40
0.0
  0
LTYPE
  5
14
330
5
100
AcDbSymbolTableRecord
100
AcDbLinetypeTableRecord
  2
BYLAYER
 70
     0
  3

 72
    65
 73
     0
 40
0.0
  0
LTYPE
  5
15
330
5
100
AcDbSymbolTableRecord
100
AcDbLinetypeTableRecord
  2
CONTINUOUS
 70
     0
  3
Solid line
 72
    65
 73
     0
 40
0.0
  0
LTYPE
  5
23
330
5
100
AcDbSymbolTableRecord
100
AcDbLinetypeTableRecord
  2
DASHED
 70
     0
  3
__ __ __ __ __ __ __ __ __ __ __ __ __ __ __
 72
    65
 73
     2
 40
0.75
 49
0.5
 74
     0
 49
-0.25
 74
     0
  0
LTYPE
  5
25
330
5
100
AcDbSymbolTableRecord
100
AcDbLinetypeTableRecord
  2
DOT
 70
     0
  3
...............................................
 72
    65
 73
     2
 40
0.25
 49
0.0
 74
     0
 49
-0.25
 74
     0
  0
LTYPE
  5
28
330
5
100
AcDbSymbolTableRecord
100
AcDbLinetypeTableRecord
  2
CENTER
 70
     0
  3
____ _ ____ _ ____ _ ____ _ ____ _ ____ _ ____ 
 72
    65
 73
     4
 40
2.0
 49
1.25
 74
     0
 49
-0.25
 74
     0
 49
0.25
 74
     0
 49
-0.25
 74
     0
  0
ENDTAB
  0
TABLE
  2
LAYER
  5
2
330
0
100
AcDbSymbolTable
 70
     3
  0
LAYER
  5
10
330
2
100
AcDbSymbolTableRecord
100
AcDbLayerTableRecord
  2
0
 70
     0
 62
     7
  6
CONTINUOUS
  0
LAYER
  5
22
330
2
100
AcDbSymbolTableRecord
100
AcDbLayerTableRecord
  2
CSLAYER1
 70
     0
 62
     7
  6
CONTINUOUS
  0
LAYER
  5
191
330
2
100
AcDbSymbolTableRecord
100
AcDbLayerTableRecord
  2
DEFPOINTS
 70
     0
 62
     7
  6
CONTINUOUS
  0
ENDTAB
  0
TABLE
  2
STYLE
  5
3
330
0
100
AcDbSymbolTable
 70
     3
  0
STYLE
  5
11
330
3
100
AcDbSymbolTableRecord
100
AcDbTextStyleTableRecord
  2
STANDARD
 70
     0
 40
0.0
 41
1.0
 50
0.0
 71
     0
 42
0.2
  3
txt
  4
extfont.shx
  0
STYLE
  5
3A
330
3
100
AcDbSymbolTableRecord
100
AcDbTextStyleTableRecord
  2
FX_FONT
 70
     0
 40
1.0
 41
1.0
 50
0.0
 71
     0
 42
1.0
  3
monotxt
  4
bigfont
  0
STYLE
  5
189
330
3
100
AcDbSymbolTableRecord
100
AcDbTextStyleTableRecord
  2
GOTHIC
 70
     0
 40
0.0
 41
1.0
 50
0.0
 71
     0
 42
0.2
  3
txt.shx
  4
extfont.shx
  0
ENDTAB
  0
TABLE
  2
VIEW
  5
6
330
0
100
AcDbSymbolTable
 70
     0
  0
ENDTAB
  0
TABLE
  2
UCS
  5
7
330
0
100
AcDbSymbolTable
 70
     0
  0
ENDTAB
  0
TABLE
  2
APPID
  5
9
330
0
100
AcDbSymbolTable
 70
     1
  0
APPID
  5
12
330
9
100
AcDbSymbolTableRecord
100
AcDbRegAppTableRecord
  2
ACAD
 70
     0
  0
ENDTAB
  0
TABLE
  2
DIMSTYLE
  5
A
330
0
100
AcDbSymbolTable
 70
     1
  0
DIMSTYLE
105
186
330
A
100
AcDbSymbolTableRecord
100
AcDbDimStyleTableRecord
  2
STANDARD
 70
     0
  3

  4

  5

  6

  7

 40
1.0
 41
0.18
 42
0.0625
 43
0.38
 44
0.18
 45
0.0
 46
0.0
 47
0.0
 48
0.0
140
0.18
141
0.09
142
0.0
143
25.4
144
1.0
145
0.0
146
1.0
147
0.09
 71
     0
 72
     0
 73
     1
 74
     1
 75
     0
 76
     0
 77
     0
 78
     0
170
     0
171
     2
172
     0
173
     0
174
     0
175
     0
176
     0
177
     0
178
     0
270
     2
271
     4
272
     4
273
     2
274
     2
340
11
275
     0
280
     0
281
     0
282
     0
283
     1
284
     0
285
     0
286
     0
287
     3
288
     0
  0
ENDTAB
  0
TABLE
  2
BLOCK_RECORD
  5
1
330
0
100
AcDbSymbolTable
 70
    21
  0
BLOCK_RECORD
  5
1E
102
{ACAD_XDICTIONARY
360
18F
102
}
330
1
100
AcDbSymbolTableRecord
100
AcDbBlockTableRecord
  2
*MODEL_SPACE
  0
BLOCK_RECORD
  5
1A
102
{ACAD_XDICTIONARY
360
18D
102
}
330
1
100
AcDbSymbolTableRecord
100
AcDbBlockTableRecord
  2
*PAPER_SPACE
  0
BLOCK_RECORD
  5
3F
330
1
100
AcDbSymbolTableRecord
100
AcDbBlockTableRecord
  2
FXDIM0000
  0
BLOCK_RECORD
  5
47
330
1
100
AcDbSymbolTableRecord
100
AcDbBlockTableRecord
  2
FXDIM0001
  0
BLOCK_RECORD
  5
51
330
1
100
AcDbSymbolTableRecord
100
AcDbBlockTableRecord
  2
FXDIM0002
  0
BLOCK_RECORD
  5
5B
330
1
100
AcDbSymbolTableRecord
100
AcDbBlockTableRecord
  2
*D3
  0
BLOCK_RECORD
  5
66
330
1
100
AcDbSymbolTableRecord
100
AcDbBlockTableRecord
  2
*D4
  0
BLOCK_RECORD
  5
73
330
1
100
AcDbSymbolTableRecord
100
AcDbBlockTableRecord
  2
*D5
  0
BLOCK_RECORD
  5
7C
330
1
100
AcDbSymbolTableRecord
100
AcDbBlockTableRecord
  2
*D6
  0
BLOCK_RECORD
  5
87
330
1
100
AcDbSymbolTableRecord
100
AcDbBlockTableRecord
  2
*D7
  0
BLOCK_RECORD
  5
92
330
1
100
AcDbSymbolTableRecord
100
AcDbBlockTableRecord
  2
*D8
  0
BLOCK_RECORD
  5
9D
330
1
100
AcDbSymbolTableRecord
100
AcDbBlockTableRecord
  2
*D9
  0
BLOCK_RECORD
  5
AA
330
1
100
AcDbSymbolTableRecord
100
AcDbBlockTableRecord
  2
*D10
  0
BLOCK_RECORD
  5
B1
330
1
100
AcDbSymbolTableRecord
100
AcDbBlockTableRecord
  2
*D11
  0
BLOCK_RECORD
  5
BE
330
1
100
AcDbSymbolTableRecord
100
AcDbBlockTableRecord
  2
*D12
  0
BLOCK_RECORD
  5
C8
330
1
100
AcDbSymbolTableRecord
100
AcDbBlockTableRecord
  2
*D13
  0
BLOCK_RECORD
  5
CF
330
1
100
AcDbSymbolTableRecord
100
AcDbBlockTableRecord
  2
*D14
  0
BLOCK_RECORD
  5
DA
330
1
100
AcDbSymbolTableRecord
100
AcDbBlockTableRecord
  2
*D15
  0
BLOCK_RECORD
  5
E4
330
1
100
AcDbSymbolTableRecord
100
AcDbBlockTableRecord
  2
*D16
  0
BLOCK_RECORD
  5
192
330
1
100
AcDbSymbolTableRecord
100
AcDbBlockTableRecord
  2
*D17
  0
BLOCK_RECORD
  5
19F
330
1
100
AcDbSymbolTableRecord
100
AcDbBlockTableRecord
  2
*D18
  0
BLOCK_RECORD
  5
1AD
330
1
100
AcDbSymbolTableRecord
100
AcDbBlockTableRecord
  2
*D19
  0
BLOCK_RECORD
  5
1BC
330
1
100
AcDbSymbolTableRecord
100
AcDbBlockTableRecord
  2
*D20
  0
ENDTAB
  0
ENDSEC
  0
SECTION
  2
BLOCKS
  0
BLOCK
  5
1F
330
1E
100
AcDbEntity
  8
0
100
AcDbBlockBegin
  2
*MODEL_SPACE
 70
     0
 10
0.0
 20
0.0
 30
0.0
  3
*MODEL_SPACE
  1

  0
ENDBLK
  5
20
330
1E
100
AcDbEntity
  8
0
100
AcDbBlockEnd
  0
BLOCK
  5
1B
330
1A
100
AcDbEntity
 67
     1
  8
0
100
AcDbBlockBegin
  2
*PAPER_SPACE
 70
     0
 10
0.0
 20
0.0
 30
0.0
  3
*PAPER_SPACE
  1

  0
ENDBLK
  5
1C
330
1A
100
AcDbEntity
 67
     1
  8
0
100
AcDbBlockEnd
  0
BLOCK
  5
40
330
3F
100
AcDbEntity
  8
0
100
AcDbBlockBegin
  2
FXDIM0000
 70
     0
 10
0.0
 20
0.0
 30
0.0
  3
FXDIM0000
  1

  0
LINE
  5
41
330
3F
100
AcDbEntity
  8
CSLAYER1
  6
CONTINUOUS
 62
     4
100
AcDbLine
 10
152.797987
 20
134.823229
 30
0.0
 11
145.0062519999999
 21
105.744079
 31
0.0
  0
LINE
  5
42
330
3F
100
AcDbEntity
  8
CSLAYER1
  6
CONTINUOUS
 62
     4
100
AcDbLine
 10
152.797987
 20
134.823229
 30
0.0
 11
152.797987
 21
131.823229
 31
0.0
  0
LINE
  5
43
330
3F
100
AcDbEntity
  8
CSLAYER1
  6
CONTINUOUS
 62
     4
100
AcDbLine
 10
152.797987
 20
134.823229
 30
0.0
 11
151.297987
 21
132.225153
 31
0.0
  0
LINE
  5
44
330
3F
100
AcDbEntity
  8
CSLAYER1
  6
CONTINUOUS
 62
     4
100
AcDbLine
 10
145.0062519999999
 20
105.744079
 30
0.0
 11
131.006252
 21
105.744079
 31
0.0
  0
TEXT
  5
45
330
3F
100
AcDbEntity
  8
CSLAYER1
 62
     4
100
AcDbText
 10
132.0062559999997
 20
106.74408
 30
0.0
 40
3.0
  1
%%c4.1
 41
1.142857142857164
 51
15.0
  7
FX_FONT
 72
     5
 11
144.006256
 21
106.74408
 31
0.0
100
AcDbText
  0
ENDBLK
  5
46
330
3F
100
AcDbEntity
  8
0
100
AcDbBlockEnd
  0
BLOCK
  5
48
330
47
100
AcDbEntity
  8
0
100
AcDbBlockBegin
  2
FXDIM0001
 70
     0
 10
0.0
 20
0.0
 30
0.0
  3
FXDIM0001
  1

  0
LINE
  5
49
330
47
100
AcDbEntity
  8
CSLAYER1
  6
CONTINUOUS
 62
     4
100
AcDbLine
 10
159.396711
 20
97.37763800000001
 30
0.0
 11
161.396711
 21
100.84174
 31
0.0
  0
LINE
  5
4A
330
47
100
AcDbEntity
  8
CSLAYER1
  6
CONTINUOUS
 62
     4
100
AcDbLine
 10
157.396711
 20
100.84174
 30
0.0
 11
169.396711
 21
100.84174
 31
0.0
  0
LINE
  5
4B
330
47
100
AcDbEntity
  8
CSLAYER1
  6
CONTINUOUS
 62
     4
100
AcDbLine
 10
157.396711
 20
100.84174
 30
0.0
 11
159.396711
 21
97.37763800000001
 31
0.0
  0
LINE
  5
4C
330
47
100
AcDbEntity
  8
CSLAYER1
  6
CONTINUOUS
 62
     4
100
AcDbLine
 10
163.396711
 20
97.37763800000001
 30
0.0
 11
165.396711
 21
100.84174
 31
0.0
  0
LINE
  5
4D
330
47
100
AcDbEntity
  8
CSLAYER1
  6
CONTINUOUS
 62
     4
100
AcDbLine
 10
161.396711
 20
100.84174
 30
0.0
 11
163.396711
 21
97.37763800000001
 31
0.0
  0
LINE
  5
4E
330
47
100
AcDbEntity
  8
CSLAYER1
  6
CONTINUOUS
 62
     4
100
AcDbLine
 10
167.396711
 20
97.37763800000001
 30
0.0
 11
169.396711
 21
100.84174
 31
0.0
  0
LINE
  5
4F
330
47
100
AcDbEntity
  8
CSLAYER1
  6
CONTINUOUS
 62
     4
100
AcDbLine
 10
165.396711
 20
100.84174
 30
0.0
 11
167.396711
 21
97.37763800000001
 31
0.0
  0
ENDBLK
  5
50
330
47
100
AcDbEntity
  8
0
100
AcDbBlockEnd
  0
BLOCK
  5
52
330
51
100
AcDbEntity
  8
0
100
AcDbBlockBegin
  2
FXDIM0002
 70
     0
 10
0.0
 20
0.0
 30
0.0
  3
FXDIM0002
  1

  0
LINE
  5
53
330
51
100
AcDbEntity
  8
CSLAYER1
  6
CONTINUOUS
 62
     4
100
AcDbLine
 10
161.796711
 20
79.377638
 30
0.0
 11
159.796711
 21
75.91353599999997
 31
0.0
  0
LINE
  5
54
330
51
100
AcDbEntity
  8
CSLAYER1
  6
CONTINUOUS
 62
     4
100
AcDbLine
 10
159.796711
 20
75.91353599999997
 30
0.0
 11
171.796711
 21
75.91353599999997
 31
0.0
  0
LINE
  5
55
330
51
100
AcDbEntity
  8
CSLAYER1
  6
CONTINUOUS
 62
     4
100
AcDbLine
 10
163.796711
 20
75.91353599999997
 30
0.0
 11
161.796711
 21
79.377638
 31
0.0
  0
LINE
  5
56
330
51
100
AcDbEntity
  8
CSLAYER1
  6
CONTINUOUS
 62
     4
100
AcDbLine
 10
165.796711
 20
79.377638
 30
0.0
 11
163.796711
 21
75.91353599999997
 31
0.0
  0
LINE
  5
57
330
51
100
AcDbEntity
  8
CSLAYER1
  6
CONTINUOUS
 62
     4
100
AcDbLine
 10
167.796711
 20
75.91353599999997
 30
0.0
 11
165.796711
 21
79.377638
 31
0.0
  0
LINE
  5
58
330
51
100
AcDbEntity
  8
CSLAYER1
  6
CONTINUOUS
 62
     4
100
AcDbLine
 10
169.796711
 20
79.377638
 30
0.0
 11
167.796711
 21
75.91353599999997
 31
0.0
  0
LINE
  5
59
330
51
100
AcDbEntity
  8
CSLAYER1
  6
CONTINUOUS
 62
     4
100
AcDbLine
 10
171.796711
 20
75.91353599999997
 30
0.0
 11
169.796711
 21
79.377638
 31
0.0
  0
ENDBLK
  5
5A
330
51
100
AcDbEntity
  8
0
100
AcDbBlockEnd
  0
BLOCK
  5
5C
330
5B
100
AcDbEntity
  8
0
100
AcDbBlockBegin
  2
*D3
 70
     1
 10
0.0
 20
0.0
 30
0.0
  3
*D3
  1

  0
TEXT
  5
5D
330
5B
100
AcDbEntity
  8
CSLAYER1
 62
     4
100
AcDbText
 10
135.496704
 20
64.23891400000001
 30
0.0
 40
3.0
  1
12.5
 41
1.090909090909083
 51
15.0
  7
FX_FONT
 72
     5
 11
147.4967039999999
 21
64.23891400000001
 31
0.0
100
AcDbText
  0
LINE
  5
5E
330
5B
100
AcDbEntity
  8
CSLAYER1
  6
CONTINUOUS
 62
     4
100
AcDbLine
 10
128.996711
 20
63.238911
 30
0.0
 11
153.996711
 21
63.238911
 31
0.0
  0
LINE
  5
5F
330
5B
100
AcDbEntity
  8
CSLAYER1
  6
CONTINUOUS
 62
     4
100
AcDbLine
 10
128.996711
 20
63.238911
 30
0.0
 11
131.8944879999999
 21
64.01536899999999
 31
0.0
  0
LINE
  5
60
330
5B
100
AcDbEntity
  8
CSLAYER1
  6
CONTINUOUS
 62
     4
100
AcDbLine
 10
128.996711
 20
63.238911
 30
0.0
 11
131.8944879999999
 21
62.462454
 31
0.0
  0
LINE
  5
61
330
5B
100
AcDbEntity
  8
CSLAYER1
  6
CONTINUOUS
 62
     4
100
AcDbLine
 10
153.996711
 20
63.238911
 30
0.0
 11
151.098933
 21
64.01536899999999
 31
0.0
  0
LINE
  5
62
330
5B
100
AcDbEntity
  8
CSLAYER1
  6
CONTINUOUS
 62
     4
100
AcDbLine
 10
153.996711
 20
63.238911
 30
0.0
 11
151.098933
 21
62.462454
 31
0.0
  0
LINE
  5
63
330
5B
100
AcDbEntity
  8
CSLAYER1
  6
CONTINUOUS
 62
     4
100
AcDbLine
 10
128.996711
 20
78.37763800000002
 30
0.0
 11
128.996711
 21
62.238911
 31
0.0
  0
LINE
  5
64
330
5B
100
AcDbEntity
  8
CSLAYER1
  6
CONTINUOUS
 62
     4
100
AcDbLine
 10
153.996711
 20
71.928495
 30
0.0
 11
153.996711
 21
62.238911
 31
0.0
  0
ENDBLK
  5
65
330
5B
100
AcDbEntity
  8
0
100
AcDbBlockEnd
  0
BLOCK
  5
67
330
66
100
AcDbEntity
  8
0
100
AcDbBlockBegin
  2
*D4
 70
     1
 10
0.0
 20
0.0
 30
0.0
  3
*D4
  1

  0
TEXT
  5
68
330
66
100
AcDbEntity
  8
CSLAYER1
 62
     4
100
AcDbText
 10
84.965424
 20
87.956917
 30
0.0
 40
3.0
  1
9   
 50
90.0
 41
1.428571428571428
 51
15.0
  7
FX_FONT
 72
     5
 11
84.965424
 21
99.95691700000001
 31
0.0
100
AcDbText
  0
TEXT
  5
69
330
66
100
AcDbEntity
  8
CSLAYER1
 62
     4
100
AcDbText
 10
83.465424
 20
99.95691700000001
 30
0.0
 40
1.5
  1
   0
 50
90.0
 41
1.621621621621595
 51
15.0
  7
FX_FONT
 72
     5
 11
83.465424
 21
105.9569169999999
 31
0.0
100
AcDbText
  0
TEXT
  5
6A
330
66
100
AcDbEntity
  8
CSLAYER1
 62
     4
100
AcDbText
 10
84.965424
 20
99.95691700000001
 30
0.0
 40
1.5
  1
-0.15
 50
90.0
 41
1.071428571428557
 51
15.0
  7
FX_FONT
 72
     5
 11
84.965424
 21
107.4569169999999
 31
0.0
100
AcDbText
  0
LINE
  5
6B
330
66
100
AcDbEntity
  8
CSLAYER1
  6
CONTINUOUS
 62
     4
100
AcDbLine
 10
85.965424
 20
79.377638
 30
0.0
 11
85.965424
 21
97.37763800000001
 31
0.0
  0
LINE
  5
6C
330
66
100
AcDbEntity
  8
CSLAYER1
  6
CONTINUOUS
 62
     4
100
AcDbLine
 10
85.965424
 20
79.377638
 30
0.0
 11
85.188967
 21
82.275416
 31
0.0
  0
LINE
  5
6D
330
66
100
AcDbEntity
  8
CSLAYER1
  6
CONTINUOUS
 62
     4
100
AcDbLine
 10
85.965424
 20
79.377638
 30
0.0
 11
86.741881
 21
82.275416
 31
0.0
  0
LINE
  5
6E
330
66
100
AcDbEntity
  8
CSLAYER1
  6
CONTINUOUS
 62
     4
100
AcDbLine
 10
85.965424
 20
97.37763800000001
 30
0.0
 11
85.188967
 21
94.47986099999999
 31
0.0
  0
LINE
  5
6F
330
66
100
AcDbEntity
  8
CSLAYER1
  6
CONTINUOUS
 62
     4
100
AcDbLine
 10
85.965424
 20
97.37763800000001
 30
0.0
 11
86.741881
 21
94.47986099999999
 31
0.0
  0
LINE
  5
70
330
66
100
AcDbEntity
  8
CSLAYER1
  6
CONTINUOUS
 62
     4
100
AcDbLine
 10
127.996711
 20
79.377638
 30
0.0
 11
84.965424
 21
79.377638
 31
0.0
  0
LINE
  5
71
330
66
100
AcDbEntity
  8
CSLAYER1
  6
CONTINUOUS
 62
     4
100
AcDbLine
 10
98.996711
 20
97.37763800000001
 30
0.0
 11
84.965424
 21
97.37763800000001
 31
0.0
  0
ENDBLK
  5
72
330
66
100
AcDbEntity
  8
0
100
AcDbBlockEnd
  0
BLOCK
  5
74
330
73
100
AcDbEntity
  8
0
100
AcDbBlockBegin
  2
*D5
 70
     1
 10
0.0
 20
0.0
 30
0.0
  3
*D5
  1

  0
TEXT
  5
75
330
73
100
AcDbEntity
  8
CSLAYER1
 62
     4
100
AcDbText
 10
101.811869
 20
82.00305
 30
0.0
 40
3.0
  1
30%%d
 50
74.99999562746966
 41
1.285714247433396
 51
15.0
  7
FX_FONT
 72
     5
 11
104.141241
 21
90.69638199999999
 31
0.0
100
AcDbText
  0
ARC
  5
76
330
73
100
AcDbEntity
  8
CSLAYER1
  6
CONTINUOUS
 62
     4
100
AcDbCircle
 10
128.996711
 20
79.377638
 30
0.0
 40
25.938049
100
AcDbArc
 50
150.0
 51
180.0
  0
LINE
  5
77
330
73
100
AcDbEntity
  8
CSLAYER1
  6
CONTINUOUS
 62
     4
100
AcDbLine
 10
106.533701
 20
92.34666199999999
 30
0.0
 11
105.7572439999999
 21
89.44888500000002
 31
0.0
  0
LINE
  5
78
330
73
100
AcDbEntity
  8
CSLAYER1
  6
CONTINUOUS
 62
     4
100
AcDbLine
 10
106.533701
 20
92.34666199999999
 30
0.0
 11
104.412381
 21
90.225342
 31
0.0
  0
LINE
  5
79
330
73
100
AcDbEntity
  8
CSLAYER1
  6
CONTINUOUS
 62
     4
100
AcDbLine
 10
103.058662
 20
79.377638
 30
0.0
 11
102.282205
 21
82.275416
 31
0.0
  0
LINE
  5
7A
330
73
100
AcDbEntity
  8
CSLAYER1
  6
CONTINUOUS
 62
     4
100
AcDbLine
 10
103.058662
 20
79.377638
 30
0.0
 11
103.8351189999999
 21
82.275416
 31
0.0
  0
ENDBLK
  5
7B
330
73
100
AcDbEntity
  8
0
100
AcDbBlockEnd
  0
BLOCK
  5
7D
330
7C
100
AcDbEntity
  8
0
100
AcDbBlockBegin
  2
*D6
 70
     1
 10
0.0
 20
0.0
 30
0.0
  3
*D6
  1

  0
TEXT
  5
7E
330
7C
100
AcDbEntity
  8
CSLAYER1
 62
     4
100
AcDbText
 10
91.501537
 20
74.404012
 30
0.0
 40
3.352796
  1
切刃部有効13.5
 50
330.000000419929
 41
0.6292969723215082
 51
15.0
  7
FX_FONT
 72
     5
 11
109.1647679999999
 21
64.206141
 31
0.0
100
AcDbText
  0
LINE
  5
7F
330
7C
100
AcDbEntity
  8
CSLAYER1
  6
CONTINUOUS
 62
     4
100
AcDbLine
 10
87.969273
 20
75.288663
 30
0.0
 11
111.351959
 21
61.788663
 31
0.0
  0
LINE
  5
80
330
7C
100
AcDbEntity
  8
CSLAYER1
  6
CONTINUOUS
 62
     4
100
AcDbLine
 10
87.969273
 20
75.288663
 30
0.0
 11
90.86705
 21
74.512206
 31
0.0
  0
LINE
  5
81
330
7C
100
AcDbEntity
  8
CSLAYER1
  6
CONTINUOUS
 62
     4
100
AcDbLine
 10
87.969273
 20
75.288663
 30
0.0
 11
90.090593
 21
73.167342
 31
0.0
  0
LINE
  5
82
330
7C
100
AcDbEntity
  8
CSLAYER1
  6
CONTINUOUS
 62
     4
100
AcDbLine
 10
111.351959
 20
61.788663
 30
0.0
 11
108.454181
 21
62.56511999999999
 31
0.0
  0
LINE
  5
83
330
7C
100
AcDbEntity
  8
CSLAYER1
  6
CONTINUOUS
 62
     4
100
AcDbLine
 10
111.351959
 20
61.788663
 30
0.0
 11
109.2306379999999
 21
63.90998299999999
 31
0.0
  0
LINE
  5
84
330
7C
100
AcDbEntity
  8
CSLAYER1
  6
CONTINUOUS
 62
     4
100
AcDbLine
 10
99.49671100000001
 20
95.25477
 30
0.0
 11
87.46927300000001
 21
74.42263699999998
 31
0.0
  0
LINE
  5
85
330
7C
100
AcDbEntity
  8
CSLAYER1
  6
CONTINUOUS
 62
     4
100
AcDbLine
 10
122.8793959999999
 20
81.75476999999998
 30
0.0
 11
110.8519589999999
 21
60.922637
 31
0.0
  0
ENDBLK
  5
86
330
7C
100
AcDbEntity
  8
0
100
AcDbBlockEnd
  0
BLOCK
  5
88
330
87
100
AcDbEntity
  8
0
100
AcDbBlockBegin
  2
*D7
 70
     1
 10
0.0
 20
0.0
 30
0.0
  3
*D7
  1

  0
TEXT
  5
89
330
87
100
AcDbEntity
  8
CSLAYER1
 62
     4
100
AcDbText
 10
123.996712
 20
179.914474
 30
0.0
 40
3.0
  1
27
 41
1.199999999999997
 51
15.0
  7
FX_FONT
 72
     5
 11
129.996712
 21
179.914474
 31
0.0
100
AcDbText
  0
LINE
  5
8A
330
87
100
AcDbEntity
  8
CSLAYER1
  6
CONTINUOUS
 62
     4
100
AcDbLine
 10
99.996711
 20
178.914474
 30
0.0
 11
153.996711
 21
178.914474
 31
0.0
  0
LINE
  5
8B
330
87
100
AcDbEntity
  8
CSLAYER1
  6
CONTINUOUS
 62
     4
100
AcDbLine
 10
99.996711
 20
178.914474
 30
0.0
 11
102.894488
 21
179.690931
 31
0.0
  0
LINE
  5
8C
330
87
100
AcDbEntity
  8
CSLAYER1
  6
CONTINUOUS
 62
     4
100
AcDbLine
 10
99.996711
 20
178.914474
 30
0.0
 11
102.894488
 21
178.138017
 31
0.0
  0
LINE
  5
8D
330
87
100
AcDbEntity
  8
CSLAYER1
  6
CONTINUOUS
 62
     4
100
AcDbLine
 10
153.996711
 20
178.914474
 30
0.0
 11
151.098933
 21
179.690931
 31
0.0
  0
LINE
  5
8E
330
87
100
AcDbEntity
  8
CSLAYER1
  6
CONTINUOUS
 62
     4
100
AcDbLine
 10
153.996711
 20
178.914474
 30
0.0
 11
151.098933
 21
178.138017
 31
0.0
  0
LINE
  5
8F
330
87
100
AcDbEntity
  8
CSLAYER1
  6
CONTINUOUS
 62
     4
100
AcDbLine
 10
99.996711
 20
142.240233
 30
0.0
 11
99.996711
 21
179.914474
 31
0.0
  0
LINE
  5
90
330
87
100
AcDbEntity
  8
CSLAYER1
  6
CONTINUOUS
 62
     4
100
AcDbLine
 10
153.996711
 20
167.3440789999999
 30
0.0
 11
153.996711
 21
179.914474
 31
0.0
  0
ENDBLK
  5
91
330
87
100
AcDbEntity
  8
0
100
AcDbBlockEnd
  0
BLOCK
  5
93
330
92
100
AcDbEntity
  8
0
100
AcDbBlockBegin
  2
*D8
 70
     1
 10
0.0
 20
0.0
 30
0.0
  3
*D8
  1

  0
TEXT
  5
94
330
92
100
AcDbEntity
  8
CSLAYER1
 62
     4
100
AcDbText
 10
83.484344
 20
131.24408
 30
0.0
 40
3.0
  1
20~21
 50
90.0
 41
1.111111111111104
 51
15.0
  7
FX_FONT
 72
     5
 11
83.484344
 21
146.2440799999999
 31
0.0
100
AcDbText
  0
LINE
  5
95
330
92
100
AcDbEntity
  8
CSLAYER1
  6
CONTINUOUS
 62
     4
100
AcDbLine
 10
84.48434
 20
118.7440789999999
 30
0.0
 11
84.48434
 21
158.744079
 31
0.0
  0
LINE
  5
96
330
92
100
AcDbEntity
  8
CSLAYER1
  6
CONTINUOUS
 62
     4
100
AcDbLine
 10
84.48434
 20
118.7440789999999
 30
0.0
 11
83.70788199999998
 21
121.641856
 31
0.0
  0
LINE
  5
97
330
92
100
AcDbEntity
  8
CSLAYER1
  6
CONTINUOUS
 62
     4
100
AcDbLine
 10
84.48434
 20
118.7440789999999
 30
0.0
 11
85.260797
 21
121.641856
 31
0.0
  0
LINE
  5
98
330
92
100
AcDbEntity
  8
CSLAYER1
  6
CONTINUOUS
 62
     4
100
AcDbLine
 10
84.48434
 20
158.744079
 30
0.0
 11
83.70788199999998
 21
155.846301
 31
0.0
  0
LINE
  5
99
330
92
100
AcDbEntity
  8
CSLAYER1
  6
CONTINUOUS
 62
     4
100
AcDbLine
 10
84.48434
 20
158.744079
 30
0.0
 11
85.260797
 21
155.846301
 31
0.0
  0
LINE
  5
9A
330
92
100
AcDbEntity
  8
CSLAYER1
  6
CONTINUOUS
 62
     4
100
AcDbLine
 10
136.996711
 20
118.7440789999999
 30
0.0
 11
83.48434000000002
 21
118.7440789999999
 31
0.0
  0
LINE
  5
9B
330
92
100
AcDbEntity
  8
CSLAYER1
  6
CONTINUOUS
 62
     4
100
AcDbLine
 10
136.996711
 20
158.744079
 30
0.0
 11
83.48434000000002
 21
158.744079
 31
0.0
  0
ENDBLK
  5
9C
330
92
100
AcDbEntity
  8
0
100
AcDbBlockEnd
  0
BLOCK
  5
9E
330
9D
100
AcDbEntity
  8
0
100
AcDbBlockBegin
  2
*D9
 70
     1
 10
0.0
 20
0.0
 30
0.0
  3
*D9
  1

  0
TEXT
  5
9F
330
9D
100
AcDbEntity
  8
CSLAYER1
 62
     4
100
AcDbText
 10
89.09352099999997
 20
134.345612
 30
0.0
 40
3.0
  1
2.5
 50
90.0
 41
1.125
 51
15.0
  7
FX_FONT
 72
     5
 11
89.09352099999997
 21
143.345612
 31
0.0
100
AcDbText
  0
LINE
  5
A0
330
9D
100
AcDbEntity
  8
CSLAYER1
  6
CONTINUOUS
 62
     4
100
AcDbLine
 10
90.48434
 20
136.247925
 30
0.0
 11
90.48434
 21
141.240233
 31
0.0
  0
LINE
  5
A1
330
9D
100
AcDbEntity
  8
CSLAYER1
  6
CONTINUOUS
 62
     4
100
AcDbLine
 10
98.996711
 20
136.247925
 30
0.0
 11
89.48434
 21
136.247925
 31
0.0
  0
LINE
  5
A2
330
9D
100
AcDbEntity
  8
CSLAYER1
  6
CONTINUOUS
 62
     4
100
AcDbLine
 10
98.996711
 20
141.240233
 30
0.0
 11
89.48434
 21
141.240233
 31
0.0
  0
LINE
  5
A3
330
9D
100
AcDbEntity
  8
CSLAYER1
  6
CONTINUOUS
 62
     4
100
AcDbLine
 10
90.48434
 20
130.247925
 30
0.0
 11
90.48434
 21
136.247925
 31
0.0
  0
LINE
  5
A4
330
9D
100
AcDbEntity
  8
CSLAYER1
  6
CONTINUOUS
 62
     4
100
AcDbLine
 10
90.48434
 20
136.247925
 30
0.0
 11
89.70788199999999
 21
133.350148
 31
0.0
  0
LINE
  5
A5
330
9D
100
AcDbEntity
  8
CSLAYER1
  6
CONTINUOUS
 62
     4
100
AcDbLine
 10
90.48434
 20
136.247925
 30
0.0
 11
91.260797
 21
133.350148
 31
0.0
  0
LINE
  5
A6
330
9D
100
AcDbEntity
  8
CSLAYER1
  6
CONTINUOUS
 62
     4
100
AcDbLine
 10
90.48434
 20
141.240233
 30
0.0
 11
90.48434
 21
147.240233
 31
0.0
  0
LINE
  5
A7
330
9D
100
AcDbEntity
  8
CSLAYER1
  6
CONTINUOUS
 62
     4
100
AcDbLine
 10
90.48434
 20
141.240233
 30
0.0
 11
89.70788199999999
 21
144.13801
 31
0.0
  0
LINE
  5
A8
330
9D
100
AcDbEntity
  8
CSLAYER1
  6
CONTINUOUS
 62
     4
100
AcDbLine
 10
90.48434
 20
141.240233
 30
0.0
 11
91.260797
 21
144.13801
 31
0.0
  0
ENDBLK
  5
A9
330
9D
100
AcDbEntity
  8
0
100
AcDbBlockEnd
  0
BLOCK
  5
AB
330
AA
100
AcDbEntity
  8
0
100
AcDbBlockBegin
  2
*D10
 70
     1
 10
0.0
 20
0.0
 30
0.0
  3
*D10
  1

  0
TEXT
  5
AC
330
AA
100
AcDbEntity
  8
CSLAYER1
 62
     4
100
AcDbText
 10
115.236606
 20
128.373569
 30
0.0
 40
3.0
  1
R25
 50
61.82294708832218
 41
1.125000035283028
 51
15.0
  7
FX_FONT
 72
     5
 11
119.486386
 21
136.307003
 31
0.0
100
AcDbText
  0
LINE
  5
AD
330
AA
100
AcDbEntity
  8
CSLAYER1
  6
CONTINUOUS
 62
     4
100
AcDbLine
 10
114.386823
 20
124.6694469999999
 30
0.0
 11
128.7389499999999
 21
151.461811
 31
0.0
  0
LINE
  5
AE
330
AA
100
AcDbEntity
  8
CSLAYER1
  6
CONTINUOUS
 62
     4
100
AcDbLine
 10
114.386823
 20
124.6694469999999
 30
0.0
 11
115.070706
 21
127.590458
 31
0.0
  0
LINE
  5
AF
330
AA
100
AcDbEntity
  8
CSLAYER1
  6
CONTINUOUS
 62
     4
100
AcDbLine
 10
114.386823
 20
124.6694469999999
 30
0.0
 11
116.4395879999997
 21
126.8571749999999
 31
0.0
  0
ENDBLK
  5
B0
330
AA
100
AcDbEntity
  8
0
100
AcDbBlockEnd
  0
BLOCK
  5
B2
330
B1
100
AcDbEntity
  8
0
100
AcDbBlockBegin
  2
*D11
 70
     1
 10
0.0
 20
0.0
 30
0.0
  3
*D11
  1

  0
TEXT
  5
B3
330
B1
100
AcDbEntity
  8
CSLAYER1
 62
     4
100
AcDbText
 10
20.321169
 20
150.2584379999998
 30
0.0
 40
3.0
  1
(0.6)
 41
1.153846153846153
 51
15.0
  7
FX_FONT
 72
     5
 11
35.321169
 21
150.2584379999998
 31
0.0
100
AcDbText
  0
LINE
  5
B4
330
B1
100
AcDbEntity
  8
CSLAYER1
  6
CONTINUOUS
 62
     4
100
AcDbLine
 10
28.440839
 20
149.2584439999999
 30
0.0
 11
29.640839
 21
149.2584439999999
 31
0.0
  0
LINE
  5
B5
330
B1
100
AcDbEntity
  8
CSLAYER1
  6
CONTINUOUS
 62
     4
100
AcDbLine
 10
38.248098
 20
139.451186
 30
0.0
 11
27.73373199999999
 21
149.965551
 31
0.0
  0
LINE
  5
B6
330
B1
100
AcDbEntity
  8
CSLAYER1
  6
CONTINUOUS
 62
     4
100
AcDbLine
 10
39.448098
 20
139.451186
 30
0.0
 11
28.933732
 21
149.965551
 31
0.0
  0
LINE
  5
B7
330
B1
100
AcDbEntity
  8
CSLAYER1
  6
CONTINUOUS
 62
     4
100
AcDbLine
 10
22.440839
 20
149.2584439999999
 30
0.0
 11
28.440839
 21
149.2584439999999
 31
0.0
  0
LINE
  5
B8
330
B1
100
AcDbEntity
  8
CSLAYER1
  6
CONTINUOUS
 62
     4
100
AcDbLine
 10
28.440839
 20
149.2584439999999
 30
0.0
 11
25.543062
 21
150.0349009999998
 31
0.0
  0
LINE
  5
B9
330
B1
100
AcDbEntity
  8
CSLAYER1
  6
CONTINUOUS
 62
     4
100
AcDbLine
 10
28.440839
 20
149.2584439999999
 30
0.0
 11
25.543062
 21
148.481987
 31
0.0
  0
LINE
  5
BA
330
B1
100
AcDbEntity
  8
CSLAYER1
  6
CONTINUOUS
 62
     4
100
AcDbLine
 10
29.640839
 20
149.2584439999999
 30
0.0
 11
32.900665
 21
149.2584439999999
 31
0.0
  0
LINE
  5
BB
330
B1
100
AcDbEntity
  8
CSLAYER1
  6
CONTINUOUS
 62
     4
100
AcDbLine
 10
29.640839
 20
149.2584439999999
 30
0.0
 11
32.538616
 21
150.0349009999998
 31
0.0
  0
LINE
  5
BC
330
B1
100
AcDbEntity
  8
CSLAYER1
  6
CONTINUOUS
 62
     4
100
AcDbLine
 10
29.640839
 20
149.2584439999999
 30
0.0
 11
32.538616
 21
148.481987
 31
0.0
  0
ENDBLK
  5
BD
330
B1
100
AcDbEntity
  8
0
100
AcDbBlockEnd
  0
BLOCK
  5
BF
330
BE
100
AcDbEntity
  8
0
100
AcDbBlockBegin
  2
*D12
 70
     1
 10
0.0
 20
0.0
 30
0.0
  3
*D12
  1

  0
TEXT
  5
C0
330
BE
100
AcDbEntity
  8
CSLAYER1
 62
     4
100
AcDbText
 10
48.200227
 20
171.622603
 30
0.0
 40
3.0
  1
45%%d
 50
337.5000057474579
 41
1.28571426436156
 51
15.0
  7
FX_FONT
 72
     5
 11
56.515143
 21
168.1784529999999
 31
0.0
100
AcDbText
  0
ARC
  5
C1
330
BE
100
AcDbEntity
  8
CSLAYER1
  6
CONTINUOUS
 62
     4
100
AcDbCircle
 10
38.95520399999997
 20
137.544079
 30
0.0
 40
34.022379
100
AcDbArc
 50
45.0
 51
90.0
  0
LINE
  5
C2
330
BE
100
AcDbEntity
  8
CSLAYER1
  6
CONTINUOUS
 62
     4
100
AcDbLine
 10
63.012659
 20
161.601534
 30
0.0
 11
60.41458299999999
 21
163.101534
 31
0.0
  0
LINE
  5
C3
330
BE
100
AcDbEntity
  8
CSLAYER1
  6
CONTINUOUS
 62
     4
100
AcDbLine
 10
63.012659
 20
161.601534
 30
0.0
 11
61.512659
 21
164.19961
 31
0.0
  0
LINE
  5
C4
330
BE
100
AcDbEntity
  8
CSLAYER1
  6
CONTINUOUS
 62
     4
100
AcDbLine
 10
38.95520399999997
 20
171.566458
 30
0.0
 11
41.852982
 21
172.3429149999999
 31
0.0
  0
LINE
  5
C5
330
BE
100
AcDbEntity
  8
CSLAYER1
  6
CONTINUOUS
 62
     4
100
AcDbLine
 10
38.95520399999997
 20
171.566458
 30
0.0
 11
41.852982
 21
170.7900009999999
 31
0.0
  0
LINE
  5
C6
330
BE
100
AcDbEntity
  8
CSLAYER1
  6
CONTINUOUS
 62
     4
100
AcDbLine
 10
55.262311
 20
153.851186
 30
0.0
 11
63.71976599999999
 21
162.30864
 31
0.0
  0
ENDBLK
  5
C7
330
BE
100
AcDbEntity
  8
0
100
AcDbBlockEnd
  0
BLOCK
  5
C9
330
C8
100
AcDbEntity
  8
0
100
AcDbBlockBegin
  2
*D13
 70
     1
 10
0.0
 20
0.0
 30
0.0
  3
*D13
  1

  0
TEXT
  5
CA
330
C8
100
AcDbEntity
  8
CSLAYER1
 62
     4
100
AcDbText
 10
55.010491
 20
150.48767
 30
0.0
 40
3.0
  1
R75
 50
355.415528007972
 41
1.124999975853513
 51
15.0
  7
FX_FONT
 72
     5
 11
63.981696
 21
149.768311
 31
0.0
100
AcDbText
  0
LINE
  5
CB
330
C8
100
AcDbEntity
  8
CSLAYER1
  6
CONTINUOUS
 62
     4
100
AcDbLine
 10
39.435117
 20
150.733381
 30
0.0
 11
66.67583499999999
 21
148.549078
 31
0.0
  0
LINE
  5
CC
330
C8
100
AcDbEntity
  8
CSLAYER1
  6
CONTINUOUS
 62
     4
100
AcDbLine
 10
39.435117
 20
150.733381
 30
0.0
 11
42.38568400000001
 21
151.275738
 31
0.0
  0
LINE
  5
CD
330
C8
100
AcDbEntity
  8
CSLAYER1
  6
CONTINUOUS
 62
     4
100
AcDbLine
 10
39.435117
 20
150.733381
 30
0.0
 11
42.261562
 21
149.7277919999999
 31
0.0
  0
ENDBLK
  5
CE
330
C8
100
AcDbEntity
  8
0
100
AcDbBlockEnd
  0
BLOCK
  5
D0
330
CF
100
AcDbEntity
  8
0
100
AcDbBlockBegin
  2
*D14
 70
     1
 10
0.0
 20
0.0
 30
0.0
  3
*D14
  1

  0
TEXT
  5
D1
330
CF
100
AcDbEntity
  8
CSLAYER1
 62
     4
100
AcDbText
 10
14.14421799999999
 20
129.269192
 30
0.0
 40
3.0
  1
60%%d
 50
300.0000020182752
 41
1.285714207269723
 51
15.0
  7
FX_FONT
 72
     5
 11
18.64421799999998
 21
121.4749639999999
 31
0.0
100
AcDbText
  0
ARC
  5
D2
330
CF
100
AcDbEntity
  8
CSLAYER1
  6
CONTINUOUS
 62
     4
100
AcDbCircle
 10
39.55520399999999
 20
138.744079
 30
0.0
 40
27.744003
100
AcDbArc
 50
180.0
 51
239.9999999999999
  0
LINE
  5
D3
330
CF
100
AcDbEntity
  8
CSLAYER1
  6
CONTINUOUS
 62
     4
100
AcDbLine
 10
11.811202
 20
138.744079
 30
0.0
 11
11.03474499999999
 21
135.846301
 31
0.0
  0
LINE
  5
D4
330
CF
100
AcDbEntity
  8
CSLAYER1
  6
CONTINUOUS
 62
     4
100
AcDbLine
 10
11.811202
 20
138.744079
 30
0.0
 11
12.587659
 21
135.846301
 31
0.0
  0
LINE
  5
D5
330
CF
100
AcDbEntity
  8
CSLAYER1
  6
CONTINUOUS
 62
     4
100
AcDbLine
 10
25.68320299999999
 20
114.717068
 30
0.0
 11
22.785426
 21
115.493525
 31
0.0
  0
LINE
  5
D6
330
CF
100
AcDbEntity
  8
CSLAYER1
  6
CONTINUOUS
 62
     4
100
AcDbLine
 10
25.68320299999999
 20
114.717068
 30
0.0
 11
23.56188299999999
 21
116.8383879999999
 31
0.0
  0
LINE
  5
D7
330
CF
100
AcDbEntity
  8
CSLAYER1
  6
CONTINUOUS
 62
     4
100
AcDbLine
 10
32.073238
 20
138.744079
 30
0.0
 11
10.81120199999999
 21
138.744079
 31
0.0
  0
LINE
  5
D8
330
CF
100
AcDbEntity
  8
CSLAYER1
  6
CONTINUOUS
 62
     4
100
AcDbLine
 10
38.458762
 20
136.844985
 30
0.0
 11
25.183203
 21
113.8510429999999
 31
0.0
  0
ENDBLK
  5
D9
330
CF
100
AcDbEntity
  8
0
100
AcDbBlockEnd
  0
BLOCK
  5
DB
330
DA
100
AcDbEntity
  8
0
100
AcDbBlockBegin
  2
*D15
 70
     1
 10
0.0
 20
0.0
 30
0.0
  3
*D15
  1

  0
TEXT
  5
DC
330
DA
100
AcDbEntity
  8
CSLAYER1
 62
     4
100
AcDbText
 10
38.58449199999999
 20
111.641506
 30
0.0
 40
3.0
  1
75%%d
 50
7.500001498516513
 41
1.28571432582311
 51
15.0
  7
FX_FONT
 72
     5
 11
47.507496
 21
112.8162419999999
 31
0.0
100
AcDbText
  0
ARC
  5
DD
330
DA
100
AcDbEntity
  8
CSLAYER1
  6
CONTINUOUS
 62
     4
100
AcDbCircle
 10
39.55520399999999
 20
138.744079
 30
0.0
 40
27.744003
100
AcDbArc
 50
239.9999999999999
 51
315.0
  0
LINE
  5
DE
330
DA
100
AcDbEntity
  8
CSLAYER1
  6
CONTINUOUS
 62
     4
100
AcDbLine
 10
25.68320299999999
 20
114.717068
 30
0.0
 11
28.580981
 21
113.940611
 31
0.0
  0
LINE
  5
DF
330
DA
100
AcDbEntity
  8
CSLAYER1
  6
CONTINUOUS
 62
     4
100
AcDbLine
 10
25.68320299999999
 20
114.717068
 30
0.0
 11
27.804523
 21
112.595748
 31
0.0
  0
LINE
  5
E0
330
DA
100
AcDbEntity
  8
CSLAYER1
  6
CONTINUOUS
 62
     4
100
AcDbLine
 10
59.173177
 20
119.126107
 30
0.0
 11
57.673177
 21
116.52803
 31
0.0
  0
LINE
  5
E1
330
DA
100
AcDbEntity
  8
CSLAYER1
  6
CONTINUOUS
 62
     4
100
AcDbLine
 10
59.173177
 20
119.126107
 30
0.0
 11
56.575101
 21
117.626107
 31
0.0
  0
LINE
  5
E2
330
DA
100
AcDbEntity
  8
CSLAYER1
  6
CONTINUOUS
 62
     4
100
AcDbLine
 10
55.262311
 20
123.0369719999999
 30
0.0
 11
59.880284
 21
118.419
 31
0.0
  0
ENDBLK
  5
E3
330
DA
100
AcDbEntity
  8
0
100
AcDbBlockEnd
  0
BLOCK
  5
E5
330
E4
100
AcDbEntity
  8
0
100
AcDbBlockBegin
  2
*D16
 70
     1
 10
0.0
 20
0.0
 30
0.0
  3
*D16
  1

  0
TEXT
  5
E6
330
E4
100
AcDbEntity
  8
CSLAYER1
 62
     4
100
AcDbText
 10
52.68578
 20
30.044458
 30
0.0
 40
3.0
  1
4
 50
90.0
 41
1.499999999999994
 51
15.0
  7
FX_FONT
 72
     5
 11
52.68578
 21
33.04445799999999
 31
0.0
100
AcDbText
  0
LINE
  5
E7
330
E4
100
AcDbEntity
  8
CSLAYER1
  6
CONTINUOUS
 62
     4
100
AcDbLine
 10
53.685779
 20
27.54445999999999
 30
0.0
 11
53.685779
 21
35.54446
 31
0.0
  0
LINE
  5
E8
330
E4
100
AcDbEntity
  8
CSLAYER1
  6
CONTINUOUS
 62
     4
100
AcDbLine
 10
53.685779
 20
27.54445999999999
 30
0.0
 11
52.909321
 21
30.44223699999999
 31
0.0
  0
LINE
  5
E9
330
E4
100
AcDbEntity
  8
CSLAYER1
  6
CONTINUOUS
 62
     4
100
AcDbLine
 10
53.685779
 20
27.54445999999999
 30
0.0
 11
54.46223599999999
 21
30.44223699999999
 31
0.0
  0
LINE
  5
EA
330
E4
100
AcDbEntity
  8
CSLAYER1
  6
CONTINUOUS
 62
     4
100
AcDbLine
 10
53.685779
 20
35.54446
 30
0.0
 11
52.909321
 21
32.646682
 31
0.0
  0
LINE
  5
EB
330
E4
100
AcDbEntity
  8
CSLAYER1
  6
CONTINUOUS
 62
     4
100
AcDbLine
 10
53.685779
 20
35.54446
 30
0.0
 11
54.46223599999999
 21
32.646682
 31
0.0
  0
LINE
  5
EC
330
E4
100
AcDbEntity
  8
CSLAYER1
  6
CONTINUOUS
 62
     4
100
AcDbLine
 10
63.93240999999999
 20
27.54445999999999
 30
0.0
 11
52.685779
 21
27.54445999999999
 31
0.0
  0
LINE
  5
ED
330
E4
100
AcDbEntity
  8
CSLAYER1
  6
CONTINUOUS
 62
     4
100
AcDbLine
 10
63.93240999999999
 20
35.54446
 30
0.0
 11
52.685779
 21
35.54446
 31
0.0
  0
ENDBLK
  5
EE
330
E4
100
AcDbEntity
  8
0
100
AcDbBlockEnd
  0
BLOCK
  5
19D
330
192
100
AcDbEntity
  8
0
100
AcDbBlockBegin
  2
*D17
 70
     1
 10
0.0
 20
0.0
 30
0.0
  3
*D17
  1

  0
ARC
  5
193
330
192
100
AcDbEntity
  8
CSLAYER1
 62
     0
100
AcDbCircle
 10
128.996711
 20
79.37763800000002
 30
0.0
 40
25.93804954818198
100
AcDbArc
 50
150.397610990396
 51
164.5879626646043
  0
ARC
  5
194
330
192
100
AcDbEntity
  8
CSLAYER1
 62
     0
100
AcDbCircle
 10
128.996711
 20
79.37763800000002
 30
0.0
 40
25.93804954818198
100
AcDbArc
 50
165.4112445897863
 51
179.6023887228768
  0
SOLID
  5
195
330
192
100
AcDbEntity
  8
CSLAYER1
 62
     0
100
AcDbTrace
 10
106.4182100090519
 20
92.20537673175192
 30
0.0
 11
106.470275314512
 21
92.17555720849384
 31
0.0
 12
106.5337012315562
 22
92.34666288650341
 32
0.0
 13
106.5337012315562
 23
92.34666288650341
 33
0.0
  0
SOLID
  5
196
330
192
100
AcDbEntity
  8
CSLAYER1
 62
     0
100
AcDbTrace
 10
103.0892858363045
 20
79.55753282225686
 30
0.0
 11
103.0292861974922
 21
79.55774101061699
 31
0.0
 12
103.058661451818
 22
79.37763800000002
 32
0.0
 13
103.058661451818
 23
79.37763800000002
 33
0.0
  0
MTEXT
  5
197
330
192
100
AcDbEntity
  8
CSLAYER1
 62
     0
100
AcDbMText
 10
103.9424790746432
 20
86.09089927857219
 30
0.0
 40
0.18
 41
0.0
 71
     5
 72
     1
  1
\A1;30°
1001
ACAD
1000
MTEXTBEGIN
1070
    73
1070
     1
1070
    44
1040
1.0
1070
    74
1070
     0
1000
MTEXTEND
1000
MTEXTBEGIN
1070
    73
1070
     1
1070
    44
1040
1.0
1070
    74
1070
     0
1000
MTEXTEND
  0
POINT
  5
198
330
192
100
AcDbEntity
  8
DEFPOINTS
 62
     0
100
AcDbPoint
 10
104.6229172715908
 20
88.24897350537389
 30
0.0
  0
POINT
  5
199
330
192
100
AcDbEntity
  8
DEFPOINTS
 62
     0
100
AcDbPoint
 10
128.996711
 20
79.37763800000002
 30
0.0
  0
POINT
  5
19A
330
192
100
AcDbEntity
  8
DEFPOINTS
 62
     0
100
AcDbPoint
 10
84.965424
 20
79.37763800000002
 30
0.0
  0
POINT
  5
19B
330
192
100
AcDbEntity
  8
DEFPOINTS
 62
     0
100
AcDbPoint
 10
127.996711
 20
79.37763800000003
 30
0.0
  0
POINT
  5
19C
330
192
100
AcDbEntity
  8
DEFPOINTS
 62
     0
100
AcDbPoint
 10
99.99671100000004
 20
96.12079600000001
 30
0.0
  0
ENDBLK
  5
19E
330
192
100
AcDbEntity
  8
0
100
AcDbBlockEnd
  0
BLOCK
  5
1AB
330
19F
100
AcDbEntity
  8
0
100
AcDbBlockBegin
  2
*D18
 70
     1
 10
0.0
 20
0.0
 30
0.0
  3
*D18
  1

  0
LINE
  5
1A0
330
19F
100
AcDbEntity
  8
CSLAYER1
 62
     0
100
AcDbLine
 10
54.59939817382418
 20
153.188273173824
 30
0.0
 11
63.13993778952883
 21
161.7288127895285
 31
0.0
  0
ARC
  5
1A1
330
19F
100
AcDbEntity
  8
CSLAYER1
 62
     0
100
AcDbCircle
 10
38.95520399999998
 20
137.544079
 30
0.0
 40
34.0223785275345
100
AcDbArc
 50
45.30313143251333
 51
66.8092344070096
  0
ARC
  5
1A2
330
19F
100
AcDbEntity
  8
CSLAYER1
 62
     0
100
AcDbCircle
 10
38.95520399999998
 20
137.544079
 30
0.0
 40
34.0223785275345
100
AcDbArc
 50
68.18733293059413
 51
89.69686856748664
  0
SOLID
  5
1A3
330
19F
100
AcDbEntity
  8
CSLAYER1
 62
     0
100
AcDbTrace
 10
62.90620011321014
 20
161.7497448950981
 30
0.0
 11
62.86388608610788
 21
161.7072064053458
 31
0.0
 12
63.01265856891525
 22
161.6015335689152
 32
0.0
 13
63.01265856891525
 23
161.6015335689152
 33
0.0
  0
SOLID
  5
1A4
330
19F
100
AcDbEntity
  8
CSLAYER1
 62
     0
100
AcDbTrace
 10
39.13512401067453
 20
171.5359814753149
 30
0.0
 11
39.13528272973632
 21
171.5959812653833
 31
0.0
 12
38.95520400000004
 22
171.5664575275345
 32
0.0
 13
38.95520400000004
 23
171.5664575275345
 33
0.0
  0
MTEXT
  5
1A5
330
19F
100
AcDbEntity
  8
CSLAYER1
 62
     0
100
AcDbMText
 10
51.97500459214126
 20
168.9766581689404
 30
0.0
 40
0.18
 41
0.0
 71
     5
 72
     1
  1
\A1;45°
1001
ACAD
1000
MTEXTBEGIN
1070
    73
1070
     1
1070
    44
1040
1.0
1070
    74
1070
     0
1000
MTEXTEND
1000
MTEXTBEGIN
1070
    73
1070
     1
1070
    44
1040
1.0
1070
    74
1070
     0
1000
MTEXTEND
  0
POINT
  5
1A6
330
19F
100
AcDbEntity
  8
DEFPOINTS
 62
     0
100
AcDbPoint
 10
55.96639326376728
 20
167.008323102015
 30
0.0
  0
POINT
  5
1A7
330
19F
100
AcDbEntity
  8
DEFPOINTS
 62
     0
100
AcDbPoint
 10
40.15520399999997
 20
138.744079
 30
0.0
  0
POINT
  5
1A8
330
19F
100
AcDbEntity
  8
DEFPOINTS
 62
     0
100
AcDbPoint
 10
38.95520399999998
 20
174.220539
 30
0.0
  0
POINT
  5
1A9
330
19F
100
AcDbEntity
  8
DEFPOINTS
 62
     0
100
AcDbPoint
 10
38.95520399999997
 20
138.744079
 30
0.0
  0
POINT
  5
1AA
330
19F
100
AcDbEntity
  8
DEFPOINTS
 62
     0
100
AcDbPoint
 10
54.55520400000001
 20
153.1440789999998
 30
0.0
  0
ENDBLK
  5
1AC
330
19F
100
AcDbEntity
  8
0
100
AcDbBlockEnd
  0
BLOCK
  5
1BA
330
1AD
100
AcDbEntity
  8
0
100
AcDbBlockBegin
  2
*D19
 70
     1
 10
0.0
 20
0.0
 30
0.0
  3
*D19
  1

  0
LINE
  5
1AE
330
1AD
100
AcDbEntity
  8
CSLAYER1
 62
     0
100
AcDbLine
 10
33.010738
 20
138.744079
 30
0.0
 11
11.63120159699184
 21
138.744079
 31
0.0
  0
LINE
  5
1AF
330
1AD
100
AcDbEntity
  8
CSLAYER1
 62
     0
100
AcDbLine
 10
38.92751202614096
 20
137.6568833971709
 30
0.0
 11
25.59321447787375
 21
114.561176800569
 31
0.0
  0
ARC
  5
1B0
330
1AD
100
AcDbEntity
  8
CSLAYER1
 62
     0
100
AcDbCircle
 10
39.55520399999999
 20
138.744079
 30
0.0
 40
27.74400240300814
100
AcDbArc
 50
180.3717292930785
 51
209.5716988217001
  0
ARC
  5
1B1
330
1AD
100
AcDbEntity
  8
CSLAYER1
 62
     0
100
AcDbCircle
 10
39.55520399999999
 20
138.744079
 30
0.0
 40
27.74400240300814
100
AcDbArc
 50
210.4301855267487
 51
239.6282983785027
  0
SOLID
  5
1B2
330
1AD
100
AcDbEntity
  8
CSLAYER1
 62
     0
100
AcDbTrace
 10
11.78178566482391
 20
138.5639826287573
 30
0.0
 11
11.84178534912781
 21
138.5641772654189
 31
0.0
 12
11.81120159699183
 22
138.744079
 32
0.0
 13
11.81120159699183
 23
138.744079
 33
0.0
  0
SOLID
  5
1B3
330
1AD
100
AcDbEntity
  8
CSLAYER1
 62
     0
100
AcDbTrace
 10
25.54270675008908
 20
114.8334985224404
 30
0.0
 11
25.51253837269211
 21
114.7816345753746
 31
0.0
 12
25.6832144025877
 22
114.7170614167165
 32
0.0
 13
25.6832144025877
 23
114.7170614167165
 33
0.0
  0
MTEXT
  5
1B4
330
1AD
100
AcDbEntity
  8
CSLAYER1
 62
     0
100
AcDbMText
 10
15.5281964661514
 20
124.8720719964512
 30
0.0
 40
0.18
 41
0.0
 71
     5
 72
     1
  1
\A1;60°
1001
ACAD
1000
MTEXTBEGIN
1070
    73
1070
     1
1070
    44
1040
1.0
1070
    74
1070
     0
1000
MTEXTEND
1000
MTEXTBEGIN
1070
    73
1070
     1
1070
    44
1040
1.0
1070
    74
1070
     0
1000
MTEXTEND
  0
POINT
  5
1B5
330
1AD
100
AcDbEntity
  8
DEFPOINTS
 62
     0
100
AcDbPoint
 10
13.48437119843143
 20
129.2550671246369
 30
0.0
  0
POINT
  5
1B6
330
1AD
100
AcDbEntity
  8
DEFPOINTS
 62
     0
100
AcDbPoint
 10
38.95520399999997
 20
138.744079
 30
0.0
  0
POINT
  5
1B7
330
1AD
100
AcDbEntity
  8
DEFPOINTS
 62
     0
100
AcDbPoint
 10
38.958762
 20
137.71101
 30
0.0
  0
POINT
  5
1B8
330
1AD
100
AcDbEntity
  8
DEFPOINTS
 62
     0
100
AcDbPoint
 10
39.55520399999999
 20
138.7440789999999
 30
0.0
  0
POINT
  5
1B9
330
1AD
100
AcDbEntity
  8
DEFPOINTS
 62
     0
100
AcDbPoint
 10
33.07323799999998
 20
138.744079
 30
0.0
  0
ENDBLK
  5
1BB
330
1AD
100
AcDbEntity
  8
0
100
AcDbBlockEnd
  0
BLOCK
  5
1C9
330
1BC
100
AcDbEntity
  8
0
100
AcDbBlockBegin
  2
*D20
 70
     1
 10
0.0
 20
0.0
 30
0.0
  3
*D20
  1

  0
LINE
  5
1BD
330
1BC
100
AcDbEntity
  8
CSLAYER1
 62
     0
100
AcDbLine
 10
38.92751202614096
 20
137.6568833971709
 30
0.0
 11
25.59321428710475
 21
114.5611764701461
 31
0.0
  0
LINE
  5
1BE
330
1BC
100
AcDbEntity
  8
CSLAYER1
 62
     0
100
AcDbLine
 10
54.59939817382416
 20
123.6998848261757
 30
0.0
 11
59.30045572682534
 21
118.9988272731745
 31
0.0
  0
ARC
  5
1BF
330
1BC
100
AcDbEntity
  8
CSLAYER1
 62
     0
100
AcDbCircle
 10
39.55520399999997
 20
138.744079
 30
0.0
 40
27.74400278454718
100
AcDbArc
 50
240.3717569595491
 51
276.7133339266655
  0
ARC
  5
1C0
330
1BC
100
AcDbEntity
  8
CSLAYER1
 62
     0
100
AcDbCircle
 10
39.55520399999997
 20
138.744079
 30
0.0
 40
27.74400278454718
100
AcDbArc
 50
278.2881184471182
 51
314.6282707120333
  0
SOLID
  5
1C1
330
1BC
100
AcDbEntity
  8
CSLAYER1
 62
     0
100
AcDbTrace
 10
25.82447433414795
 20
114.6015380243559
 30
0.0
 11
25.85430559086681
 21
114.6535966079188
 31
0.0
 12
25.68321421181869
 22
114.7170610862938
 32
0.0
 13
25.68321421181869
 23
114.7170610862938
 33
0.0
  0
SOLID
  5
1C2
330
1BC
100
AcDbEntity
  8
CSLAYER1
 62
     0
100
AcDbTrace
 10
59.02434079121748
 20
119.0205227358415
 30
0.0
 11
59.06662934595662
 21
118.9779589232999
 31
0.0
 12
59.17317650621176
 22
119.1261064937882
 32
0.0
 13
59.17317650621176
 23
119.1261064937882
 33
0.0
  0
MTEXT
  5
1C3
330
1BC
100
AcDbEntity
  8
CSLAYER1
 62
     0
100
AcDbMText
 10
43.176529682718
 20
111.2374308797972
 30
0.0
 40
0.18
 41
0.0
 71
     5
 72
     1
  1
\A1;75°
1001
ACAD
1000
MTEXTBEGIN
1070
    73
1070
     1
1070
    44
1040
1.0
1070
    74
1070
     0
1000
MTEXTEND
1000
MTEXTBEGIN
1070
    73
1070
     1
1070
    44
1040
1.0
1070
    74
1070
     0
1000
MTEXTEND
  0
POINT
  5
1C4
330
1BC
100
AcDbEntity
  8
DEFPOINTS
 62
     0
100
AcDbPoint
 10
37.13716372936084
 20
111.105649743645
 30
0.0
  0
POINT
  5
1C5
330
1BC
100
AcDbEntity
  8
DEFPOINTS
 62
     0
100
AcDbPoint
 10
39.55520399999999
 20
138.744079
 30
0.0
  0
POINT
  5
1C6
330
1BC
100
AcDbEntity
  8
DEFPOINTS
 62
     0
100
AcDbPoint
 10
54.55520400000001
 20
123.7440789999999
 30
0.0
  0
POINT
  5
1C7
330
1BC
100
AcDbEntity
  8
DEFPOINTS
 62
     0
100
AcDbPoint
 10
39.55520399999999
 20
138.744079
 30
0.0
  0
POINT
  5
1C8
330
1BC
100
AcDbEntity
  8
DEFPOINTS
 62
     0
100
AcDbPoint
 10
38.958762
 20
137.71101
 30
0.0
  0
ENDBLK
  5
1CA
330
1BC
100
AcDbEntity
  8
0
100
AcDbBlockEnd
  0
ENDSEC
  0
SECTION
  2
ENTITIES
  0
POINT
  5
F0
330
1E
100
AcDbEntity
  8
CSLAYER1
 62
     3
100
AcDbPoint
 10
125.2499999999999
 20
21.75
 30
0.0
  0
POINT
  5
F1
330
1E
100
AcDbEntity
  8
CSLAYER1
 62
     3
100
AcDbPoint
 10
135.4999999999999
 20
21.75
 30
0.0
  0
TEXT
  5
F2
330
1E
100
AcDbEntity
  8
CSLAYER1
 62
     3
100
AcDbText
 10
119.0499999999999
 20
25.5
 30
0.0
 40
2.5
  1
刃開キハ
 41
1.110447761194031
  7
FX_FONT
 72
     5
 11
131.45
 21
25.5
 31
0.0
100
AcDbText
  0
TEXT
  5
F3
330
1E
100
AcDbEntity
  8
CSLAYER1
 62
     3
100
AcDbText
 10
119.0
 20
20.5
 30
0.0
 40
2.5
  1
切刃部有効
 41
0.872093023255814
  7
FX_FONT
 72
     5
 11
131.4999999999999
 21
20.5
 31
0.0
100
AcDbText
  0
TEXT
  5
F4
330
1E
100
AcDbEntity
  8
CSLAYER1
 62
     3
100
AcDbText
 10
134.25
 20
25.5
 30
0.0
 40
2.5
  1
4
 41
1.499999999999982
  7
FX_FONT
 72
     5
 11
136.7499999999999
 21
25.5
 31
0.0
100
AcDbText
  0
TEXT
  5
F5
330
1E
100
AcDbEntity
  8
CSLAYER1
 62
     3
100
AcDbText
 10
131.4999999999999
 20
20.5
 30
0.0
 40
2.5
  1
13.5
 41
0.8727272727272728
  7
FX_FONT
 72
     5
 11
139.5
 21
20.5
 31
0.0
100
AcDbText
  0
INSERT
  5
F6
330
1E
100
AcDbEntity
  8
CSLAYER1
100
AcDbBlockReference
  2
FXDIM0001
 10
0.0
 20
0.0
 30
0.0
 41
0.5
 42
0.5
 43
0.5
  0
INSERT
  5
F7
330
1E
100
AcDbEntity
  8
CSLAYER1
100
AcDbBlockReference
  2
FXDIM0002
 10
0.0
 20
0.0
 30
0.0
 41
0.5
 42
0.5
 43
0.5
  0
POINT
  5
F8
330
1E
100
AcDbEntity
  8
CSLAYER1
 62
     3
100
AcDbPoint
 10
126.5
 20
9.5
 30
0.0
  0
TEXT
  5
F9
330
1E
100
AcDbEntity
  8
CSLAYER1
 62
     3
100
AcDbText
 10
123.0
 20
8.625
 30
0.0
 40
1.75
  1
N7AS
 41
1.09090909090909
  7
FX_FONT
 72
     5
 11
130.0
 21
8.625
 31
0.0
100
AcDbText
  0
LINE
  5
FA
330
1E
100
AcDbEntity
  8
CSLAYER1
  6
CONTINUOUS
 62
     3
100
AcDbLine
 10
119.0
 20
20.0
 30
0.0
 11
139.5
 21
20.0
 31
0.0
  0
LINE
  5
FB
330
1E
100
AcDbEntity
  8
CSLAYER1
  6
CONTINUOUS
 62
     3
100
AcDbLine
 10
139.5
 20
25.0
 30
0.0
 11
119.0
 21
25.0
 31
0.0
  0
ARC
  5
FC
330
1E
100
AcDbEntity
  8
CSLAYER1
  6
CONTINUOUS
 62
     3
100
AcDbCircle
 10
127.4024824999999
 20
44.18881900000001
 30
0.0
 40
3.5958725
100
AcDbArc
 50
271.548158
 51
88.451842
  0
LINE
  5
FD
330
1E
100
AcDbEntity
  8
CSLAYER1
  6
CONTINUOUS
 62
     3
100
AcDbLine
 10
127.499633
 20
47.78337899999999
 30
0.0
 11
93.9983555
 21
48.688819
 31
0.0
  0
LINE
  5
FE
330
1E
100
AcDbEntity
  8
CSLAYER1
  6
CONTINUOUS
 62
     3
100
AcDbLine
 10
93.9983555
 20
48.688819
 30
0.0
 11
49.9983555
 21
48.688819
 31
0.0
  0
LINE
  5
FF
330
1E
100
AcDbEntity
  8
CSLAYER1
  6
CONTINUOUS
 62
     3
100
AcDbLine
 10
49.9983555
 20
48.688819
 30
0.0
 11
49.9983555
 21
48.060398
 31
0.0
  0
LINE
  5
100
330
1E
100
AcDbEntity
  8
CSLAYER1
  6
CONTINUOUS
 62
     3
100
AcDbLine
 10
49.9983555
 20
48.060398
 30
0.0
 11
64.4983555
 21
39.688819
 31
0.0
  0
LINE
  5
101
330
1E
100
AcDbEntity
  8
CSLAYER1
  6
CONTINUOUS
 62
     3
100
AcDbLine
 10
64.4983555
 20
39.688819
 30
0.0
 11
93.9983555
 21
39.688819
 31
0.0
  0
LINE
  5
102
330
1E
100
AcDbEntity
  8
CSLAYER1
  6
CONTINUOUS
 62
     3
100
AcDbLine
 10
93.9983555
 20
39.688819
 30
0.0
 11
127.499633
 21
40.59425899999999
 31
0.0
  0
LINE
  5
103
330
1E
100
AcDbEntity
  8
CSLAYER1
  6
CONTINUOUS
 62
     3
100
AcDbLine
 10
125.4309539999999
 20
62.2286905
 30
0.0
 11
84.9983555
 21
59.37203949999995
 31
0.0
  0
LINE
  5
104
330
1E
100
AcDbEntity
  8
CSLAYER1
  6
CONTINUOUS
 62
     3
100
AcDbLine
 10
84.9983555
 20
59.37203949999995
 30
0.0
 11
68.9983555
 21
59.37203949999995
 31
0.0
  0
ARC
  5
105
330
1E
100
AcDbEntity
  8
CSLAYER1
  6
CONTINUOUS
 62
     3
100
AcDbCircle
 10
64.2034345
 20
71.67203949999991
 30
0.0
 40
2.5
100
AcDbArc
 50
270.0
 51
349.809411
  0
ARC
  5
106
330
1E
100
AcDbEntity
  8
CSLAYER1
  6
CONTINUOUS
 62
     3
100
AcDbCircle
 10
64.2034345
 20
67.0720395
 30
0.0
 40
2.5
100
AcDbArc
 50
66.92608199999999
 51
90.0
  0
LINE
  5
107
330
1E
100
AcDbEntity
  8
CSLAYER1
  6
CONTINUOUS
 62
     3
100
AcDbLine
 10
64.2034345
 20
69.5720395
 30
0.0
 11
61.689698
 21
69.5720395
 31
0.0
  0
LINE
  5
108
330
1E
100
AcDbEntity
  8
CSLAYER1
  6
CONTINUOUS
 62
     3
100
AcDbLine
 10
61.689698
 20
69.17203949999995
 30
0.0
 11
64.2034345
 21
69.17203949999995
 31
0.0
  0
LINE
  5
109
330
1E
100
AcDbEntity
  8
CSLAYER1
  6
CONTINUOUS
 62
     3
100
AcDbLine
 10
49.9983555
 20
70.62011650000001
 30
0.0
 11
49.9983555
 21
68.1239625
 31
0.0
  0
ARC
  5
10A
330
1E
100
AcDbEntity
  8
CSLAYER1
  6
CONTINUOUS
 62
     3
100
AcDbCircle
 10
68.9983555
 20
84.3720395
 30
0.0
 40
25.0
100
AcDbArc
 50
220.5358019999999
 51
270.0
  0
LINE
  5
10B
330
1E
100
AcDbEntity
  8
CSLAYER1
  6
CONTINUOUS
 62
     3
100
AcDbLine
 10
49.9983555
 20
69.3720395
 30
0.0
 11
61.689698
 21
69.3720395
 31
0.0
  0
LINE
  5
10C
330
1E
100
AcDbEntity
  8
CSLAYER1
  6
CONTINUOUS
 62
     3
100
AcDbLine
 10
64.9947475
 20
69.4434995
 30
0.0
 11
68.00589399999999
 21
79.29251500000001
 31
0.0
  0
LINE
  5
10D
330
1E
100
AcDbEntity
  8
CSLAYER1
  6
CONTINUOUS
 62
     3
100
AcDbLine
 10
68.9983555
 20
79.3720395
 30
0.0
 11
84.9983555
 21
79.3720395
 31
0.0
  0
LINE
  5
10E
330
1E
100
AcDbEntity
  8
CSLAYER1
  6
CONTINUOUS
 62
     3
100
AcDbLine
 10
84.9983555
 20
79.3720395
 30
0.0
 11
125.4309539999999
 21
76.5153885
 31
0.0
  0
LINE
  5
10F
330
1E
100
AcDbEntity
  8
CSLAYER1
  6
CONTINUOUS
 62
     3
100
AcDbLine
 10
126.4983554999999
 20
70.8720395
 30
0.0
 11
126.4983554999999
 21
67.8720395
 31
0.0
  0
LINE
  5
110
330
1E
100
AcDbEntity
  8
CSLAYER1
  6
CONTINUOUS
 62
     3
100
AcDbLine
 10
130.9983555
 20
67.8720395
 30
0.0
 11
88.22332749999997
 21
67.8720395
 31
0.0
  0
LINE
  5
111
330
1E
100
AcDbEntity
  8
CSLAYER1
  6
CONTINUOUS
 62
     3
100
AcDbLine
 10
88.56521449999997
 20
67.8720395
 30
0.0
 11
85.98787800000001
 21
59.4419515
 31
0.0
  0
ARC
  5
112
330
1E
100
AcDbEntity
  8
CSLAYER1
  6
CONTINUOUS
 62
     3
100
AcDbCircle
 10
76.9983555
 20
69.3720395
 30
0.0
 40
10.5
100
AcDbArc
 50
287.75279
 51
3.822554
  0
LINE
  5
113
330
1E
100
AcDbEntity
  8
CSLAYER1
  6
CONTINUOUS
 62
     3
100
AcDbLine
 10
88.22332749999997
 20
70.8720395
 30
0.0
 11
130.9983555
 21
70.8720395
 31
0.0
  0
ARC
  5
114
330
1E
100
AcDbEntity
  8
CSLAYER1
  6
CONTINUOUS
 62
     3
100
AcDbCircle
 10
125.008095
 20
70.53030799999994
 30
0.0
 40
6.0
100
AcDbArc
 50
3.265063999999999
 51
85.95864399999998
  0
LINE
  5
115
330
1E
100
AcDbEntity
  8
CSLAYER1
  6
CONTINUOUS
 62
     3
100
AcDbLine
 10
121.4983554999999
 20
70.8720395
 30
0.0
 11
121.4983554999999
 21
67.8720395
 31
0.0
  0
ARC
  5
116
330
1E
100
AcDbEntity
  8
CSLAYER1
  6
CONTINUOUS
 62
     3
100
AcDbCircle
 10
125.008095
 20
68.21377099999999
 30
0.0
 40
6.0
100
AcDbArc
 50
274.0413559999999
 51
356.734936
  0
LINE
  5
117
330
1E
100
AcDbEntity
  8
CSLAYER1
  6
CONTINUOUS
 62
     3
100
AcDbLine
 10
68.00589399999999
 20
43.438819
 30
0.0
 11
68.00589399999999
 21
39.688819
 31
0.0
  0
LINE
  5
118
330
1E
100
AcDbEntity
  8
CSLAYER1
  6
CONTINUOUS
 62
     3
100
AcDbLine
 10
68.75589399999995
 20
44.18881900000001
 30
0.0
 11
85.237878
 21
44.18881900000001
 31
0.0
  0
ARC
  5
119
330
1E
100
AcDbEntity
  8
CSLAYER1
  6
CONTINUOUS
 62
     3
100
AcDbCircle
 10
85.237878
 20
44.938819
 30
0.0
 40
0.75
100
AcDbArc
 50
270.0
 51
0.0
  0
LINE
  5
11A
330
1E
100
AcDbEntity
  8
CSLAYER1
  6
CONTINUOUS
 62
     3
100
AcDbLine
 10
85.98787800000001
 20
44.938819
 30
0.0
 11
85.98787800000001
 21
48.688819
 31
0.0
  0
LINE
  5
11B
330
1E
100
AcDbEntity
  8
CSLAYER1
  6
CONTINUOUS
 62
     3
100
AcDbLine
 10
80.19991749999995
 20
48.688819
 30
0.0
 11
80.19991749999995
 21
44.688819
 31
0.0
  0
LINE
  5
11C
330
1E
100
AcDbEntity
  8
CSLAYER1
  6
CONTINUOUS
 62
     3
100
AcDbLine
 10
80.19991749999995
 20
44.688819
 30
0.0
 11
79.69991749999995
 21
44.18881900000001
 31
0.0
  0
LINE
  5
11D
330
1E
100
AcDbEntity
  8
CSLAYER1
  6
CONTINUOUS
 62
     3
100
AcDbLine
 10
74.296793
 20
44.18881900000001
 30
0.0
 11
73.79679300000001
 21
43.688819
 31
0.0
  0
LINE
  5
11E
330
1E
100
AcDbEntity
  8
CSLAYER1
  6
CONTINUOUS
 62
     3
100
AcDbLine
 10
73.79679300000001
 20
43.688819
 30
0.0
 11
73.79679300000001
 21
39.688819
 31
0.0
  0
ARC
  5
11F
330
1E
100
AcDbEntity
  8
CSLAYER1
  6
CONTINUOUS
 62
     3
100
AcDbCircle
 10
68.75589399999995
 20
43.438819
 30
0.0
 40
0.75
100
AcDbArc
 50
90.0
 51
180.0
  0
CIRCLE
  5
120
330
1E
100
AcDbEntity
  8
CSLAYER1
  6
CONTINUOUS
 62
     3
100
AcDbCircle
 10
76.9983555
 20
69.3720395
 30
0.0
 40
2.049999999999998
  0
CIRCLE
  5
121
330
1E
100
AcDbEntity
  8
CSLAYER1
  6
CONTINUOUS
 62
     3
100
AcDbCircle
 10
76.9983555
 20
69.3720395
 30
0.0
 40
6.4
  0
ARC
  5
122
330
1E
100
AcDbEntity
  8
CSLAYER1
  6
CONTINUOUS
 62
     3
100
AcDbCircle
 10
88.22332749999997
 20
68.62203949999996
 30
0.0
 40
0.75
100
AcDbArc
 50
176.1774459999999
 51
270.0
  0
ARC
  5
123
330
1E
100
AcDbEntity
  8
CSLAYER1
  6
CONTINUOUS
 62
     3
100
AcDbCircle
 10
88.22332749999997
 20
70.12203949999996
 30
0.0
 40
0.75
100
AcDbArc
 50
90.0
 51
183.8225539999998
  0
ARC
  5
124
330
1E
100
AcDbEntity
  8
CSLAYER1
  6
CONTINUOUS
 62
     3
100
AcDbCircle
 10
76.9983555
 20
69.3720395
 30
0.0
 40
10.5
100
AcDbArc
 50
107.7527899999999
 51
169.809411
  0
ARC
  5
125
330
1E
100
AcDbEntity
  8
CSLAYER1
  6
CONTINUOUS
 62
     3
100
AcDbCircle
 10
68.9983555
 20
54.3720395
 30
0.0
 40
25.0
100
AcDbArc
 50
90.0
 51
139.464198
  0
LINE
  5
126
330
1E
100
AcDbEntity
  8
CSLAYER1
  6
CONTINUOUS
 62
     3
100
AcDbLine
 10
27.277602
 20
61.87203949999995
 30
0.0
 11
19.77760199999999
 21
69.3720395
 31
0.0
  0
LINE
  5
127
330
1E
100
AcDbEntity
  8
CSLAYER1
  6
CONTINUOUS
 62
     3
100
AcDbLine
 10
19.77760199999999
 20
69.3720395
 30
0.0
 11
19.479381
 21
68.855505
 31
0.0
  0
ARC
  5
128
330
1E
100
AcDbEntity
  8
CSLAYER1
  6
CONTINUOUS
 62
     3
100
AcDbCircle
 10
94.47760200000001
 20
69.3720395
 30
0.0
 40
75.0
100
AcDbArc
 50
172.3377439999999
 51
180.0
  0
LINE
  5
129
330
1E
100
AcDbEntity
  8
CSLAYER1
  6
CONTINUOUS
 62
     3
100
AcDbLine
 10
20.1472585
 20
79.3720395
 30
0.0
 11
27.277602
 21
79.3720395
 31
0.0
  0
LINE
  5
12A
330
1E
100
AcDbEntity
  8
CSLAYER1
  6
CONTINUOUS
 62
     3
100
AcDbLine
 10
27.277602
 20
76.5720394999999
 30
0.0
 11
20.07760199999998
 21
69.3720395
 31
0.0
  0
LINE
  5
12B
330
1E
100
AcDbEntity
  8
CSLAYER1
  6
CONTINUOUS
 62
     3
100
AcDbLine
 10
20.07760199999998
 20
69.3720395
 30
0.0
 11
19.47760199999998
 21
69.3720395
 31
0.0
  0
ARC
  5
12C
330
1E
100
AcDbEntity
  8
CSLAYER1
  6
CONTINUOUS
 62
     3
100
AcDbCircle
 10
94.47760200000001
 20
69.3720395
 30
0.0
 40
75.0
100
AcDbArc
 50
180.3946059999999
 51
187.641334
  0
LINE
  5
12D
330
1E
100
AcDbEntity
  8
CSLAYER1
  6
CONTINUOUS
 62
     3
100
AcDbLine
 10
20.143612
 20
59.39918249999995
 30
0.0
 11
27.277602
 21
59.39918249999995
 31
0.0
  0
LINE
  5
12E
330
1E
100
AcDbEntity
  8
CSLAYER1
  6
CENTER
 62
     4
100
AcDbLine
 10
16.536619
 20
69.3720395
 30
0.0
 11
19.47760199999998
 21
69.3720395
 31
0.0
  0
LINE
  5
12F
330
1E
100
AcDbEntity
  8
CSLAYER1
  6
CENTER
 62
     4
100
AcDbLine
 10
47.19835549999999
 20
69.3720395
 30
0.0
 11
49.9983555
 21
69.3720395
 31
0.0
  0
LINE
  5
130
330
1E
100
AcDbEntity
  8
CSLAYER1
  6
CENTER
 62
     4
100
AcDbLine
 10
76.9983555
 20
54.9720395
 30
0.0
 11
76.9983555
 21
83.17203949999996
 31
0.0
  0
LINE
  5
131
330
1E
100
AcDbEntity
  8
CSLAYER1
  6
CENTER
 62
     4
100
AcDbLine
 10
61.689698
 20
69.3720395
 30
0.0
 11
133.839573
 21
69.3720395
 31
0.0
  0
LINE
  5
132
330
1E
100
AcDbEntity
  8
CSLAYER1
  6
CENTER
 62
     4
100
AcDbLine
 10
123.9983555
 20
72.59567599999996
 30
0.0
 11
123.9983555
 21
66.42355450000001
 31
0.0
  0
LINE
  5
133
330
1E
100
AcDbEntity
  8
CSLAYER1
  6
CENTER
 62
     4
100
AcDbLine
 10
136.9983555
 20
44.18881900000001
 30
0.0
 11
124.0983554999999
 21
44.18881900000001
 31
0.0
  0
LINE
  5
134
330
1E
100
AcDbEntity
  8
CSLAYER1
  6
CENTER
 62
     4
100
AcDbLine
 10
92.9983555
 20
44.18881900000001
 30
0.0
 11
85.98787800000001
 21
44.18881900000001
 31
0.0
  0
LINE
  5
135
330
1E
100
AcDbEntity
  8
CSLAYER1
  6
CENTER
 62
     4
100
AcDbLine
 10
76.9983555
 20
36.46424749999999
 30
0.0
 11
76.9983555
 21
52.5133905
 31
0.0
  0
LINE
  5
136
330
1E
100
AcDbEntity
  8
CSLAYER1
  6
CENTER
 62
     4
100
AcDbLine
 10
68.00589399999999
 20
44.18881900000001
 30
0.0
 11
60.79835550000001
 21
44.18881900000001
 31
0.0
  0
LINE
  5
137
330
1E
100
AcDbEntity
  8
CSLAYER1
  6
CENTER
 62
     4
100
AcDbLine
 10
92.9983555
 20
64.4803485
 30
0.0
 11
92.9983555
 21
74.1282705
 31
0.0
  0
LINE
  5
138
330
1E
100
AcDbEntity
  8
CSLAYER1
  6
DASHED
 62
     4
100
AcDbLine
 10
64.4983555
 20
48.688819
 30
0.0
 11
63.3060355
 21
41.9268365
 31
0.0
  0
ARC
  5
139
330
1E
100
AcDbEntity
  8
CSLAYER1
  6
DASHED
 62
     4
100
AcDbCircle
 10
62.32122749999994
 20
42.100485
 30
0.0
 40
1.0
100
AcDbArc
 50
239.9999999999999
 51
350.0
  0
LINE
  5
13A
330
1E
100
AcDbEntity
  8
CSLAYER1
  6
CONTINUOUS
 62
     3
100
AcDbLine
 10
49.9983555
 20
70.62011650000001
 30
0.0
 11
60.39898149999999
 21
76.3852775
 31
0.0
  0
LINE
  5
13B
330
1E
100
AcDbEntity
  8
CSLAYER1
  6
CONTINUOUS
 62
     3
100
AcDbLine
 10
64.4983555
 20
69.55458299999989
 30
0.0
 11
61.80429599999989
 21
75.90138899999995
 31
0.0
  0
ARC
  5
13C
330
1E
100
AcDbEntity
  8
CSLAYER1
  6
CONTINUOUS
 62
     3
100
AcDbCircle
 10
24.347048
 20
70.96338900000001
 30
0.0
 40
37.5
100
AcDbArc
 50
357.8736869999998
 51
8.223039999999999
  0
ARC
  5
13D
330
1E
100
AcDbEntity
  8
CSLAYER1
  6
CONTINUOUS
 62
     3
100
AcDbCircle
 10
60.88379099999995
 20
75.51065799999995
 30
0.0
 40
1.0
100
AcDbArc
 50
22.99999999999998
 51
119.0
  0
ARC
  5
13E
330
1E
100
AcDbEntity
  8
CSLAYER1
  6
CONTINUOUS
 62
     3
100
AcDbCircle
 10
60.88379099999995
 20
63.23342099999995
 30
0.0
 40
1.0
100
AcDbArc
 50
241.0
 51
337.0
  0
ARC
  5
13F
330
1E
100
AcDbEntity
  8
CSLAYER1
  6
CONTINUOUS
 62
     3
100
AcDbCircle
 10
24.347048
 20
67.78069000000001
 30
0.0
 40
37.5
100
AcDbArc
 50
351.7769599999998
 51
2.126313
  0
LINE
  5
140
330
1E
100
AcDbEntity
  8
CSLAYER1
  6
CONTINUOUS
 62
     3
100
AcDbLine
 10
64.4983555
 20
69.18949599999995
 30
0.0
 11
61.80429599999989
 21
62.84269
 31
0.0
  0
LINE
  5
141
330
1E
100
AcDbEntity
  8
CSLAYER1
  6
CONTINUOUS
 62
     3
100
AcDbLine
 10
49.9983555
 20
68.1239625
 30
0.0
 11
60.39898149999999
 21
62.35880149999999
 31
0.0
  0
LINE
  5
145
330
1E
100
AcDbEntity
  8
CSLAYER1
  6
CONTINUOUS
 62
     3
100
AcDbLine
 10
61.689698
 20
69.5720395
 30
0.0
 11
61.689698
 21
69.17203949999995
 31
0.0
  0
LINE
  5
147
330
1E
100
AcDbEntity
  8
CSLAYER1
  6
CENTER
 62
     4
100
AcDbLine
 10
20.07760199999998
 20
69.3720395
 30
0.0
 11
28.0392905
 21
69.3720395
 31
0.0
  0
LINE
  5
14C
330
1E
100
AcDbEntity
  8
CSLAYER1
  6
CONTINUOUS
 62
     3
100
AcDbLine
 10
27.277602
 20
76.5720394999999
 30
0.0
 11
27.277602
 21
79.3720395
 31
0.0
  0
LINE
  5
14D
330
1E
100
AcDbEntity
  8
CSLAYER1
  6
CONTINUOUS
 62
     3
100
AcDbLine
 10
27.277602
 20
61.87203949999995
 30
0.0
 11
27.277602
 21
59.37203949999995
 31
0.0
  0
LINE
  5
154
330
1E
100
AcDbEntity
  8
CSLAYER1
  6
CONTINUOUS
 62
     3
100
AcDbLine
 10
46.647074
 20
16.91945249999999
 30
0.0
 11
44.1402435
 21
17.10565499999999
 31
0.0
  0
LINE
  5
155
330
1E
100
AcDbEntity
  8
CSLAYER1
  6
CONTINUOUS
 62
     3
100
AcDbLine
 10
32.558655
 20
19.01687799999998
 30
0.0
 11
32.466205
 21
17.77223
 31
0.0
  0
LINE
  5
156
330
1E
100
AcDbEntity
  8
CSLAYER1
  6
CONTINUOUS
 62
     3
100
AcDbLine
 10
32.466205
 20
17.77223
 30
0.0
 11
44.125429
 21
16.9062045
 31
0.0
  0
LINE
  5
157
330
1E
100
AcDbEntity
  8
CSLAYER1
  6
CONTINUOUS
 62
     3
100
AcDbLine
 10
47.4266915
 20
16.73264999999999
 30
0.0
 11
51.159122
 21
26.33155949999999
 31
0.0
  0
LINE
  5
158
330
1E
100
AcDbEntity
  8
CSLAYER1
  6
CONTINUOUS
 62
     3
100
AcDbLine
 10
52.15474799999995
 20
26.33735
 30
0.0
 11
59.392029
 21
25.79977799999999
 31
0.0
  0
CIRCLE
  5
159
330
1E
100
AcDbEntity
  8
CSLAYER1
  6
CONTINUOUS
 62
     3
100
AcDbCircle
 10
59.392029
 20
15.77223
 30
0.0
 40
2.049999999999998
  0
CIRCLE
  5
15A
330
1E
100
AcDbEntity
  8
CSLAYER1
  6
CONTINUOUS
 62
     3
100
AcDbCircle
 10
59.392029
 20
15.77223
 30
0.0
 40
6.4
  0
ARC
  5
15B
330
1E
100
AcDbEntity
  8
CSLAYER1
  6
CONTINUOUS
 62
     3
100
AcDbCircle
 10
59.392029
 20
15.77223
 30
0.0
 40
10.5
100
AcDbArc
 50
112.000813
 51
174.057434
  0
ARC
  5
15C
330
1E
100
AcDbEntity
  8
CSLAYER1
  6
CONTINUOUS
 62
     3
100
AcDbCircle
 10
50.302896
 20
1.4060315
 30
0.0
 40
25.0
100
AcDbArc
 50
85.751977
 51
135.216175
  0
LINE
  5
15D
330
1E
100
AcDbEntity
  8
CSLAYER1
  6
CENTER
 62
     4
100
AcDbLine
 10
59.392029
 20
4.0203265
 30
0.0
 11
59.392029
 21
27.7094065
 31
0.0
  0
LINE
  5
15E
330
1E
100
AcDbEntity
  8
CSLAYER1
  6
CENTER
 62
     4
100
AcDbLine
 10
29.848106
 20
15.77223
 30
0.0
 11
67.409991
 21
15.77223
 31
0.0
  0
LINE
  5
15F
330
1E
100
AcDbEntity
  8
CSLAYER1
  6
CONTINUOUS
 62
     3
100
AcDbLine
 10
32.558655
 20
19.01687799999998
 30
0.0
 11
43.357757
 21
23.995784
 31
0.0
  0
LINE
  5
160
330
1E
100
AcDbEntity
  8
CSLAYER1
  6
CONTINUOUS
 62
     3
100
AcDbLine
 10
46.93989149999999
 20
16.8801975
 30
0.0
 11
44.72336699999998
 21
23.4091275
 31
0.0
  0
ARC
  5
161
330
1E
100
AcDbEntity
  8
CSLAYER1
  6
CONTINUOUS
 62
     3
100
AcDbCircle
 10
7.003246
 20
21.2593045
 30
0.0
 40
37.5
100
AcDbArc
 50
353.6256639999998
 51
3.975016999999999
  0
ARC
  5
162
330
1E
100
AcDbEntity
  8
CSLAYER1
  6
CONTINUOUS
 62
     3
100
AcDbCircle
 10
43.77644799999997
 20
23.08765549999999
 30
0.0
 40
1.0
100
AcDbArc
 50
18.751977
 51
114.7519769999999
  0
LINE
  5
163
330
1E
100
AcDbEntity
  8
CSLAYER1
  6
CONTINUOUS
 62
     3
100
AcDbLine
 10
44.1402435
 20
17.10565499999999
 30
0.0
 11
44.125429
 21
16.9062045
 31
0.0
  0
LINE
  5
164
330
1E
100
AcDbEntity
  8
CSLAYER1
  6
CONTINUOUS
 62
     3
100
AcDbLine
 10
46.647074
 20
14.6250075
 30
0.0
 11
44.1402435
 21
14.43880499999999
 31
0.0
  0
LINE
  5
165
330
1E
100
AcDbEntity
  8
CSLAYER1
  6
CONTINUOUS
 62
     3
100
AcDbLine
 10
32.558655
 20
12.527582
 30
0.0
 11
32.466205
 21
13.77222999999999
 31
0.0
  0
LINE
  5
166
330
1E
100
AcDbEntity
  8
CSLAYER1
  6
CONTINUOUS
 62
     3
100
AcDbLine
 10
32.466205
 20
13.77222999999999
 30
0.0
 11
44.125429
 21
14.6382555
 31
0.0
  0
LINE
  5
167
330
1E
100
AcDbEntity
  8
CSLAYER1
  6
CONTINUOUS
 62
     3
100
AcDbLine
 10
52.15474799999995
 20
5.20711
 30
0.0
 11
66.41719000000001
 21
6.266497499999999
 31
0.0
  0
ARC
  5
168
330
1E
100
AcDbEntity
  8
CSLAYER1
  6
CONTINUOUS
 62
     3
100
AcDbCircle
 10
50.302896
 20
30.13842849999999
 30
0.0
 40
25.0
100
AcDbArc
 50
224.783825
 51
274.2480229999999
  0
LINE
  5
169
330
1E
100
AcDbEntity
  8
CSLAYER1
  6
CONTINUOUS
 62
     3
100
AcDbLine
 10
32.558655
 20
12.527582
 30
0.0
 11
43.357757
 21
7.548675999999995
 31
0.0
  0
LINE
  5
16A
330
1E
100
AcDbEntity
  8
CSLAYER1
  6
CONTINUOUS
 62
     3
100
AcDbLine
 10
46.93989149999999
 20
14.66426199999999
 30
0.0
 11
44.72336699999998
 21
8.1353325
 31
0.0
  0
ARC
  5
16B
330
1E
100
AcDbEntity
  8
CSLAYER1
  6
CONTINUOUS
 62
     3
100
AcDbCircle
 10
7.003246
 20
10.2851555
 30
0.0
 40
37.5
100
AcDbArc
 50
356.0249829999998
 51
6.374336
  0
ARC
  5
16C
330
1E
100
AcDbEntity
  8
CSLAYER1
  6
CONTINUOUS
 62
     3
100
AcDbCircle
 10
43.77644799999997
 20
8.4568045
 30
0.0
 40
1.0
100
AcDbArc
 50
245.248023
 51
341.2480229999999
  0
LINE
  5
16D
330
1E
100
AcDbEntity
  8
CSLAYER1
  6
CONTINUOUS
 62
     3
100
AcDbLine
 10
44.1402435
 20
14.43880499999999
 30
0.0
 11
44.125429
 21
14.6382555
 31
0.0
  0
ARC
  5
16E
330
1E
100
AcDbEntity
  8
CSLAYER1
  6
CONTINUOUS
 62
     3
100
AcDbCircle
 10
46.4618885
 20
17.11813949999999
 30
0.0
 40
2.5
100
AcDbArc
 50
274.2480229999999
 51
354.057434
  0
ARC
  5
16F
330
1E
100
AcDbEntity
  8
CSLAYER1
  6
CONTINUOUS
 62
     3
100
AcDbCircle
 10
46.4618885
 20
14.4263205
 30
0.0
 40
2.5
100
AcDbArc
 50
32.572322
 51
85.751977
  0
LINE
  5
170
330
1E
100
AcDbEntity
  8
CSLAYER1
  6
CONTINUOUS
 62
     3
100
AcDbLine
 10
55.45852149999999
 20
25.5076045
 30
0.0
 11
64.69932800000001
 21
26.1939945
 31
0.0
  0
LINE
  5
172
330
1E
100
AcDbEntity
  8
CSLAYER1
  6
CONTINUOUS
 62
     3
100
AcDbLine
 10
20.465778
 20
6.27223
 30
0.0
 11
12.965778
 21
13.77222999999999
 31
0.0
  0
LINE
  5
173
330
1E
100
AcDbEntity
  8
CSLAYER1
  6
CONTINUOUS
 62
     3
100
AcDbLine
 10
12.965778
 20
13.77222999999999
 30
0.0
 11
12.6675565
 21
13.25569549999999
 31
0.0
  0
ARC
  5
174
330
1E
100
AcDbEntity
  8
CSLAYER1
  6
CONTINUOUS
 62
     3
100
AcDbCircle
 10
87.665778
 20
17.77223
 30
0.0
 40
75.0
100
AcDbArc
 50
172.3377439999999
 51
180.0
  0
LINE
  5
175
330
1E
100
AcDbEntity
  8
CSLAYER1
  6
CONTINUOUS
 62
     3
100
AcDbLine
 10
13.33543399999999
 20
27.77223
 30
0.0
 11
20.465778
 21
27.77223
 31
0.0
  0
LINE
  5
176
330
1E
100
AcDbEntity
  8
CSLAYER1
  6
CONTINUOUS
 62
     3
100
AcDbLine
 10
20.465778
 20
24.97222999999999
 30
0.0
 11
13.26577799999999
 21
17.77223
 31
0.0
  0
LINE
  5
177
330
1E
100
AcDbEntity
  8
CSLAYER1
  6
CONTINUOUS
 62
     3
100
AcDbLine
 10
13.26577799999999
 20
17.77223
 30
0.0
 11
12.665778
 21
17.77223
 31
0.0
  0
ARC
  5
178
330
1E
100
AcDbEntity
  8
CSLAYER1
  6
CONTINUOUS
 62
     3
100
AcDbCircle
 10
87.665778
 20
13.77222999999999
 30
0.0
 40
75.0
100
AcDbArc
 50
180.3946059999999
 51
187.641334
  0
LINE
  5
179
330
1E
100
AcDbEntity
  8
CSLAYER1
  6
CONTINUOUS
 62
     3
100
AcDbLine
 10
13.3317875
 20
3.799373
 30
0.0
 11
20.465778
 21
3.799373
 31
0.0
  0
LINE
  5
17A
330
1E
100
AcDbEntity
  8
CSLAYER1
  6
CENTER
 62
     4
100
AcDbLine
 10
9.724794500000001
 20
15.77223
 30
0.0
 11
22.21149449999999
 21
15.77223
 31
0.0
  0
LINE
  5
17B
330
1E
100
AcDbEntity
  8
CSLAYER1
  6
CONTINUOUS
 62
     3
100
AcDbLine
 10
20.465778
 20
24.97222999999999
 30
0.0
 11
20.465778
 21
27.77223
 31
0.0
  0
LINE
  5
17C
330
1E
100
AcDbEntity
  8
CSLAYER1
  6
CONTINUOUS
 62
     3
100
AcDbLine
 10
20.465778
 20
6.27223
 30
0.0
 11
20.465778
 21
3.77223
 31
0.0
  0
POINT
  5
17D
330
1E
100
AcDbEntity
  8
CSLAYER1
 62
     3
100
AcDbPoint
 10
125.2499999999999
 20
26.75
 30
0.0
  0
POINT
  5
17E
330
1E
100
AcDbEntity
  8
CSLAYER1
 62
     3
100
AcDbPoint
 10
135.4999999999999
 20
26.75
 30
0.0
  0
LINE
  5
17F
330
1E
100
AcDbEntity
  8
CSLAYER1
  6
DOT
 62
     3
100
AcDbLine
 10
2.5
 20
0.5
 30
0.0
 11
142.0
 21
0.5
 31
0.0
  0
LINE
  5
180
330
1E
100
AcDbEntity
  8
CSLAYER1
  6
DOT
 62
     3
100
AcDbLine
 10
142.0
 20
0.5
 30
0.0
 11
142.0
 21
97.5
 31
0.0
  0
LINE
  5
181
330
1E
100
AcDbEntity
  8
CSLAYER1
  6
DOT
 62
     3
100
AcDbLine
 10
142.0
 20
97.5
 30
0.0
 11
2.5
 21
97.5
 31
0.0
  0
LINE
  5
182
330
1E
100
AcDbEntity
  8
CSLAYER1
  6
DOT
 62
     3
100
AcDbLine
 10
2.5
 20
97.5
 30
0.0
 11
2.5
 21
0.5
 31
0.0
  0
LINE
  5
183
330
1E
100
AcDbEntity
  8
CSLAYER1
  6
DOT
 62
     3
100
AcDbLine
 10
142.0
 20
49.0
 30
0.0
 11
144.0
 21
49.0
 31
0.0
  0
LINE
  5
184
330
1E
100
AcDbEntity
  8
CSLAYER1
  6
DOT
 62
     3
100
AcDbLine
 10
2.5
 20
49.0
 30
0.0
 11
0.5
 21
49.0
 31
0.0
  0
LINE
  5
185
330
1E
100
AcDbEntity
  8
CSLAYER1
  6
DOT
 62
     3
100
AcDbLine
 10
72.25
 20
97.5
 30
0.0
 11
72.25
 21
99.50000000000001
 31
0.0
  0
TEXT
  5
1E4
330
1E
100
AcDbEntity
  8
CSLAYER1
 62
     4
100
AcDbText
 10
61.99835600000001
 20
89.957237
 30
0.0
 40
1.5
  1
27
 41
1.199999999999997
 51
15.0
  7
FX_FONT
 72
     5
 11
64.998356
 21
89.957237
 31
0.0
100
AcDbText
  0
LINE
  5
1E5
330
1E
100
AcDbEntity
  8
CSLAYER1
 62
     4
100
AcDbLine
 10
49.9983555
 20
89.457237
 30
0.0
 11
76.9983555
 21
89.457237
 31
0.0
  0
LINE
  5
1E6
330
1E
100
AcDbEntity
  8
CSLAYER1
 62
     4
100
AcDbLine
 10
49.9983555
 20
89.457237
 30
0.0
 11
51.447244
 21
89.84546550000001
 31
0.0
  0
LINE
  5
1E7
330
1E
100
AcDbEntity
  8
CSLAYER1
 62
     4
100
AcDbLine
 10
49.9983555
 20
89.457237
 30
0.0
 11
51.447244
 21
89.06900849999999
 31
0.0
  0
LINE
  5
1E8
330
1E
100
AcDbEntity
  8
CSLAYER1
 62
     4
100
AcDbLine
 10
76.9983555
 20
89.457237
 30
0.0
 11
75.54946650000001
 21
89.84546550000001
 31
0.0
  0
LINE
  5
1E9
330
1E
100
AcDbEntity
  8
CSLAYER1
 62
     4
100
AcDbLine
 10
76.9983555
 20
89.457237
 30
0.0
 11
75.54946650000001
 21
89.06900849999999
 31
0.0
  0
LINE
  5
1EA
330
1E
100
AcDbEntity
  8
CSLAYER1
 62
     4
100
AcDbLine
 10
49.9983555
 20
71.12011650000001
 30
0.0
 11
49.9983555
 21
89.957237
 31
0.0
  0
LINE
  5
1EB
330
1E
100
AcDbEntity
  8
CSLAYER1
 62
     4
100
AcDbLine
 10
76.9983555
 20
83.67203949999995
 30
0.0
 11
76.9983555
 21
89.957237
 31
0.0
  0
TEXT
  5
1EC
330
1E
100
AcDbEntity
  8
CSLAYER1
 62
     4
100
AcDbText
 10
41.742172
 20
65.62204
 30
0.0
 40
1.5
  1
20~21
 50
90.0
 41
1.111111111111104
 51
15.0
  7
FX_FONT
 72
     5
 11
41.742172
 21
73.12203999999995
 31
0.0
100
AcDbText
  0
LINE
  5
1ED
330
1E
100
AcDbEntity
  8
CSLAYER1
 62
     4
100
AcDbLine
 10
42.24217
 20
59.37203949999995
 30
0.0
 11
42.24217
 21
79.3720395
 31
0.0
  0
LINE
  5
1EE
330
1E
100
AcDbEntity
  8
CSLAYER1
 62
     4
100
AcDbLine
 10
42.24217
 20
59.37203949999995
 30
0.0
 11
41.85394099999999
 21
60.820928
 31
0.0
  0
LINE
  5
1EF
330
1E
100
AcDbEntity
  8
CSLAYER1
 62
     4
100
AcDbLine
 10
42.24217
 20
59.37203949999995
 30
0.0
 11
42.6303985
 21
60.820928
 31
0.0
  0
LINE
  5
1F0
330
1E
100
AcDbEntity
  8
CSLAYER1
 62
     4
100
AcDbLine
 10
42.24217
 20
79.3720395
 30
0.0
 11
41.85394099999999
 21
77.9231505
 31
0.0
  0
LINE
  5
1F1
330
1E
100
AcDbEntity
  8
CSLAYER1
 62
     4
100
AcDbLine
 10
42.24217
 20
79.3720395
 30
0.0
 11
42.6303985
 21
77.9231505
 31
0.0
  0
LINE
  5
1F2
330
1E
100
AcDbEntity
  8
CSLAYER1
 62
     4
100
AcDbLine
 10
68.4983555
 20
59.37203949999995
 30
0.0
 11
41.74217000000001
 21
59.37203949999995
 31
0.0
  0
LINE
  5
1F3
330
1E
100
AcDbEntity
  8
CSLAYER1
 62
     4
100
AcDbLine
 10
68.4983555
 20
79.3720395
 30
0.0
 11
41.74217000000001
 21
79.3720395
 31
0.0
  0
TEXT
  5
1F4
330
1E
100
AcDbEntity
  8
CSLAYER1
 62
     4
100
AcDbText
 10
44.54676049999998
 20
67.17280600000001
 30
0.0
 40
1.5
  1
2.5
 50
90.0
 41
1.125
 51
15.0
  7
FX_FONT
 72
     5
 11
44.54676049999998
 21
71.67280600000001
 31
0.0
100
AcDbText
  0
LINE
  5
1F5
330
1E
100
AcDbEntity
  8
CSLAYER1
 62
     4
100
AcDbLine
 10
45.24217
 20
68.1239625
 30
0.0
 11
45.24217
 21
70.62011650000001
 31
0.0
  0
LINE
  5
1F6
330
1E
100
AcDbEntity
  8
CSLAYER1
 62
     4
100
AcDbLine
 10
49.4983555
 20
68.1239625
 30
0.0
 11
44.74217
 21
68.1239625
 31
0.0
  0
LINE
  5
1F7
330
1E
100
AcDbEntity
  8
CSLAYER1
 62
     4
100
AcDbLine
 10
49.4983555
 20
70.62011650000001
 30
0.0
 11
44.74217
 21
70.62011650000001
 31
0.0
  0
LINE
  5
1F8
330
1E
100
AcDbEntity
  8
CSLAYER1
 62
     4
100
AcDbLine
 10
45.24217
 20
65.1239625
 30
0.0
 11
45.24217
 21
68.1239625
 31
0.0
  0
LINE
  5
1F9
330
1E
100
AcDbEntity
  8
CSLAYER1
 62
     4
100
AcDbLine
 10
45.24217
 20
68.1239625
 30
0.0
 11
44.85394099999999
 21
66.67507399999999
 31
0.0
  0
LINE
  5
1FA
330
1E
100
AcDbEntity
  8
CSLAYER1
 62
     4
100
AcDbLine
 10
45.24217
 20
68.1239625
 30
0.0
 11
45.6303985
 21
66.67507399999999
 31
0.0
  0
LINE
  5
1FB
330
1E
100
AcDbEntity
  8
CSLAYER1
 62
     4
100
AcDbLine
 10
45.24217
 20
70.62011650000001
 30
0.0
 11
45.24217
 21
73.62011650000001
 31
0.0
  0
LINE
  5
1FC
330
1E
100
AcDbEntity
  8
CSLAYER1
 62
     4
100
AcDbLine
 10
45.24217
 20
70.62011650000001
 30
0.0
 11
44.85394099999999
 21
72.069005
 31
0.0
  0
LINE
  5
1FD
330
1E
100
AcDbEntity
  8
CSLAYER1
 62
     4
100
AcDbLine
 10
45.24217
 20
70.62011650000001
 30
0.0
 11
45.6303985
 21
72.069005
 31
0.0
  0
TEXT
  5
1FE
330
1E
100
AcDbEntity
  8
CSLAYER1
 62
     4
100
AcDbText
 10
57.618303
 20
64.1867845
 30
0.0
 40
1.5
  1
R25
 50
61.82294708832218
 41
1.125000035283027
 51
15.0
  7
FX_FONT
 72
     5
 11
59.74319300000001
 21
68.1535015
 31
0.0
100
AcDbText
  0
LINE
  5
1FF
330
1E
100
AcDbEntity
  8
CSLAYER1
 62
     4
100
AcDbLine
 10
57.19341149999999
 20
62.33472349999995
 30
0.0
 11
64.36947499999995
 21
75.7309055
 31
0.0
  0
LINE
  5
200
330
1E
100
AcDbEntity
  8
CSLAYER1
 62
     4
100
AcDbLine
 10
57.19341149999999
 20
62.33472349999995
 30
0.0
 11
57.535353
 21
63.79522900000001
 31
0.0
  0
LINE
  5
201
330
1E
100
AcDbEntity
  8
CSLAYER1
 62
     4
100
AcDbLine
 10
57.19341149999999
 20
62.33472349999995
 30
0.0
 11
58.21979399999989
 21
63.42858749999995
 31
0.0
  0
LINE
  5
202
330
1E
100
AcDbEntity
  8
CSLAYER1
  6
CONTINUOUS
 62
     4
100
AcDbLine
 10
76.3989935
 20
67.41161449999999
 30
0.0
 11
72.50312599999995
 21
52.8720395
 31
0.0
  0
LINE
  5
203
330
1E
100
AcDbEntity
  8
CSLAYER1
  6
CONTINUOUS
 62
     4
100
AcDbLine
 10
76.3989935
 20
67.41161449999999
 30
0.0
 11
76.3989935
 21
65.9116145
 31
0.0
  0
LINE
  5
204
330
1E
100
AcDbEntity
  8
CSLAYER1
  6
CONTINUOUS
 62
     4
100
AcDbLine
 10
76.3989935
 20
67.41161449999999
 30
0.0
 11
75.64899350000001
 21
66.1125765
 31
0.0
  0
LINE
  5
205
330
1E
100
AcDbEntity
  8
CSLAYER1
  6
CONTINUOUS
 62
     4
100
AcDbLine
 10
72.50312599999995
 20
52.8720395
 30
0.0
 11
65.50312599999999
 21
52.8720395
 31
0.0
  0
TEXT
  5
206
330
1E
100
AcDbEntity
  8
CSLAYER1
 62
     4
100
AcDbText
 10
66.00312799999989
 20
53.37204
 30
0.0
 40
1.5
  1
%%c4.1
 41
1.142857142857164
 51
15.0
  7
FX_FONT
 72
     5
 11
72.003128
 21
53.37204
 31
0.0
100
AcDbText
  0
TEXT
  5
207
330
1E
100
AcDbEntity
  8
CSLAYER1
 62
     4
100
AcDbText
 10
42.482712
 20
43.9784585
 30
0.0
 40
1.5
  1
9   
 50
90.0
 41
1.428571428571428
 51
15.0
  7
FX_FONT
 72
     5
 11
42.482712
 21
49.9784585
 31
0.0
100
AcDbText
  0
TEXT
  5
208
330
1E
100
AcDbEntity
  8
CSLAYER1
 62
     4
100
AcDbText
 10
41.732712
 20
49.9784585
 30
0.0
 40
0.75
  1
   0
 50
90.0
 41
1.621621621621594
 51
15.0
  7
FX_FONT
 72
     5
 11
41.732712
 21
52.97845849999995
 31
0.0
100
AcDbText
  0
TEXT
  5
209
330
1E
100
AcDbEntity
  8
CSLAYER1
 62
     4
100
AcDbText
 10
42.482712
 20
49.9784585
 30
0.0
 40
0.75
  1
-0.15
 50
90.0
 41
1.071428571428557
 51
15.0
  7
FX_FONT
 72
     5
 11
42.482712
 21
53.72845849999995
 31
0.0
100
AcDbText
  0
LINE
  5
20A
330
1E
100
AcDbEntity
  8
CSLAYER1
 62
     4
100
AcDbLine
 10
42.982712
 20
39.688819
 30
0.0
 11
42.982712
 21
48.688819
 31
0.0
  0
LINE
  5
20B
330
1E
100
AcDbEntity
  8
CSLAYER1
 62
     4
100
AcDbLine
 10
42.982712
 20
39.688819
 30
0.0
 11
42.5944835
 21
41.137708
 31
0.0
  0
LINE
  5
20C
330
1E
100
AcDbEntity
  8
CSLAYER1
 62
     4
100
AcDbLine
 10
42.982712
 20
39.688819
 30
0.0
 11
43.3709405
 21
41.137708
 31
0.0
  0
LINE
  5
20D
330
1E
100
AcDbEntity
  8
CSLAYER1
 62
     4
100
AcDbLine
 10
42.982712
 20
48.688819
 30
0.0
 11
42.5944835
 21
47.23993049999999
 31
0.0
  0
LINE
  5
20E
330
1E
100
AcDbEntity
  8
CSLAYER1
 62
     4
100
AcDbLine
 10
42.982712
 20
48.688819
 30
0.0
 11
43.3709405
 21
47.23993049999999
 31
0.0
  0
LINE
  5
20F
330
1E
100
AcDbEntity
  8
CSLAYER1
 62
     4
100
AcDbLine
 10
63.9983555
 20
39.688819
 30
0.0
 11
42.482712
 21
39.688819
 31
0.0
  0
LINE
  5
210
330
1E
100
AcDbEntity
  8
CSLAYER1
 62
     4
100
AcDbLine
 10
49.4983555
 20
48.688819
 30
0.0
 11
42.482712
 21
48.688819
 31
0.0
  0
TEXT
  5
211
330
1E
100
AcDbEntity
  8
CSLAYER1
 62
     4
100
AcDbText
 10
45.7507685
 20
37.202006
 30
0.0
 40
1.676398
  1
切刃部有効13.5
 50
330.000000419929
 41
0.629296972321508
 51
15.0
  7
FX_FONT
 72
     5
 11
54.58238399999995
 21
32.1030705
 31
0.0
100
AcDbText
  0
LINE
  5
212
330
1E
100
AcDbEntity
  8
CSLAYER1
 62
     4
100
AcDbLine
 10
43.9846365
 20
37.6443315
 30
0.0
 11
55.6759795
 21
30.8943315
 31
0.0
  0
LINE
  5
213
330
1E
100
AcDbEntity
  8
CSLAYER1
 62
     4
100
AcDbLine
 10
43.9846365
 20
37.6443315
 30
0.0
 11
45.433525
 21
37.256103
 31
0.0
  0
LINE
  5
214
330
1E
100
AcDbEntity
  8
CSLAYER1
 62
     4
100
AcDbLine
 10
43.9846365
 20
37.6443315
 30
0.0
 11
45.0452965
 21
36.583671
 31
0.0
  0
LINE
  5
215
330
1E
100
AcDbEntity
  8
CSLAYER1
 62
     4
100
AcDbLine
 10
55.6759795
 20
30.8943315
 30
0.0
 11
54.2270905
 21
31.28255999999999
 31
0.0
  0
LINE
  5
216
330
1E
100
AcDbEntity
  8
CSLAYER1
 62
     4
100
AcDbLine
 10
55.6759795
 20
30.8943315
 30
0.0
 11
54.61531899999995
 21
31.95499149999999
 31
0.0
  0
LINE
  5
217
330
1E
100
AcDbEntity
  8
CSLAYER1
 62
     4
100
AcDbLine
 10
49.7483555
 20
47.627385
 30
0.0
 11
43.7346365
 21
37.21131849999999
 31
0.0
  0
LINE
  5
218
330
1E
100
AcDbEntity
  8
CSLAYER1
 62
     4
100
AcDbLine
 10
61.43969799999995
 20
40.87738499999999
 30
0.0
 11
55.42597949999995
 21
30.4613185
 31
0.0
  0
TEXT
  5
219
330
1E
100
AcDbEntity
  8
CSLAYER1
 62
     4
100
AcDbText
 10
67.748352
 20
32.119457
 30
0.0
 40
1.5
  1
12.5
 41
1.090909090909083
 51
15.0
  7
FX_FONT
 72
     5
 11
73.74835199999996
 21
32.119457
 31
0.0
100
AcDbText
  0
LINE
  5
21A
330
1E
100
AcDbEntity
  8
CSLAYER1
 62
     4
100
AcDbLine
 10
64.4983555
 20
31.6194555
 30
0.0
 11
76.9983555
 21
31.6194555
 31
0.0
  0
LINE
  5
21B
330
1E
100
AcDbEntity
  8
CSLAYER1
 62
     4
100
AcDbLine
 10
64.4983555
 20
31.6194555
 30
0.0
 11
65.94724399999996
 21
32.00768449999999
 31
0.0
  0
LINE
  5
21C
330
1E
100
AcDbEntity
  8
CSLAYER1
 62
     4
100
AcDbLine
 10
64.4983555
 20
31.6194555
 30
0.0
 11
65.94724399999996
 21
31.231227
 31
0.0
  0
LINE
  5
21D
330
1E
100
AcDbEntity
  8
CSLAYER1
 62
     4
100
AcDbLine
 10
76.9983555
 20
31.6194555
 30
0.0
 11
75.54946650000001
 21
32.00768449999999
 31
0.0
  0
LINE
  5
21E
330
1E
100
AcDbEntity
  8
CSLAYER1
 62
     4
100
AcDbLine
 10
76.9983555
 20
31.6194555
 30
0.0
 11
75.54946650000001
 21
31.231227
 31
0.0
  0
LINE
  5
21F
330
1E
100
AcDbEntity
  8
CSLAYER1
 62
     4
100
AcDbLine
 10
64.4983555
 20
39.188819
 30
0.0
 11
64.4983555
 21
31.1194555
 31
0.0
  0
LINE
  5
220
330
1E
100
AcDbEntity
  8
CSLAYER1
 62
     4
100
AcDbLine
 10
76.9983555
 20
35.9642475
 30
0.0
 11
76.9983555
 21
31.1194555
 31
0.0
  0
TEXT
  5
221
330
1E
100
AcDbEntity
  8
CSLAYER1
 62
     4
100
AcDbText
 10
26.34289
 20
15.022229
 30
0.0
 40
1.5
  1
4
 50
90.0
 41
1.499999999999994
 51
15.0
  7
FX_FONT
 72
     5
 11
26.34289
 21
16.52222899999999
 31
0.0
100
AcDbText
  0
LINE
  5
222
330
1E
100
AcDbEntity
  8
CSLAYER1
 62
     4
100
AcDbLine
 10
26.8428895
 20
13.77222999999999
 30
0.0
 11
26.8428895
 21
17.77223
 31
0.0
  0
LINE
  5
223
330
1E
100
AcDbEntity
  8
CSLAYER1
 62
     4
100
AcDbLine
 10
26.8428895
 20
13.77222999999999
 30
0.0
 11
26.4546605
 21
15.22111849999999
 31
0.0
  0
LINE
  5
224
330
1E
100
AcDbEntity
  8
CSLAYER1
 62
     4
100
AcDbLine
 10
26.8428895
 20
13.77222999999999
 30
0.0
 11
27.23111799999999
 21
15.22111849999999
 31
0.0
  0
LINE
  5
225
330
1E
100
AcDbEntity
  8
CSLAYER1
 62
     4
100
AcDbLine
 10
26.8428895
 20
17.77223
 30
0.0
 11
26.4546605
 21
16.323341
 31
0.0
  0
LINE
  5
226
330
1E
100
AcDbEntity
  8
CSLAYER1
 62
     4
100
AcDbLine
 10
26.8428895
 20
17.77223
 30
0.0
 11
27.23111799999999
 21
16.323341
 31
0.0
  0
LINE
  5
227
330
1E
100
AcDbEntity
  8
CSLAYER1
 62
     4
100
AcDbLine
 10
31.96620499999999
 20
13.77222999999999
 30
0.0
 11
26.3428895
 21
13.77222999999999
 31
0.0
  0
LINE
  5
228
330
1E
100
AcDbEntity
  8
CSLAYER1
 62
     4
100
AcDbLine
 10
31.96620499999999
 20
17.77223
 30
0.0
 11
26.3428895
 21
17.77223
 31
0.0
  0
TEXT
  5
229
330
1E
100
AcDbEntity
  8
CSLAYER1
 62
     4
100
AcDbText
 10
27.5052455
 20
75.243835
 30
0.0
 40
1.5
  1
R75
 50
355.415528007972
 41
1.124999975853513
 51
15.0
  7
FX_FONT
 72
     5
 11
31.990848
 21
74.8841555
 31
0.0
100
AcDbText
  0
LINE
  5
22A
330
1E
100
AcDbEntity
  8
CSLAYER1
 62
     4
100
AcDbLine
 10
19.7175585
 20
75.3666905
 30
0.0
 11
33.33791749999999
 21
74.274539
 31
0.0
  0
LINE
  5
22B
330
1E
100
AcDbEntity
  8
CSLAYER1
 62
     4
100
AcDbLine
 10
19.7175585
 20
75.3666905
 30
0.0
 11
21.192842
 21
75.637869
 31
0.0
  0
LINE
  5
22C
330
1E
100
AcDbEntity
  8
CSLAYER1
 62
     4
100
AcDbLine
 10
19.7175585
 20
75.3666905
 30
0.0
 11
21.130781
 21
74.86389599999995
 31
0.0
  0
TEXT
  5
22D
330
1E
100
AcDbEntity
  8
CSLAYER1
 62
     4
100
AcDbText
 10
10.1605845
 20
75.12921899999991
 30
0.0
 40
1.5
  1
(0.6)
 41
1.153846153846153
 51
15.0
  7
FX_FONT
 72
     5
 11
17.6605845
 21
75.12921899999991
 31
0.0
100
AcDbText
  0
LINE
  5
22E
330
1E
100
AcDbEntity
  8
CSLAYER1
 62
     4
100
AcDbLine
 10
14.2204195
 20
74.62922199999995
 30
0.0
 11
14.8204195
 21
74.62922199999995
 31
0.0
  0
LINE
  5
22F
330
1E
100
AcDbEntity
  8
CSLAYER1
 62
     4
100
AcDbLine
 10
19.124049
 20
69.725593
 30
0.0
 11
13.86686599999999
 21
74.9827755
 31
0.0
  0
LINE
  5
230
330
1E
100
AcDbEntity
  8
CSLAYER1
 62
     4
100
AcDbLine
 10
19.724049
 20
69.725593
 30
0.0
 11
14.466866
 21
74.9827755
 31
0.0
  0
LINE
  5
231
330
1E
100
AcDbEntity
  8
CSLAYER1
 62
     4
100
AcDbLine
 10
11.2204195
 20
74.62922199999995
 30
0.0
 11
14.2204195
 21
74.62922199999995
 31
0.0
  0
LINE
  5
232
330
1E
100
AcDbEntity
  8
CSLAYER1
 62
     4
100
AcDbLine
 10
14.2204195
 20
74.62922199999995
 30
0.0
 11
12.771531
 21
75.01745049999991
 31
0.0
  0
LINE
  5
233
330
1E
100
AcDbEntity
  8
CSLAYER1
 62
     4
100
AcDbLine
 10
14.2204195
 20
74.62922199999995
 30
0.0
 11
12.771531
 21
74.2409935
 31
0.0
  0
LINE
  5
234
330
1E
100
AcDbEntity
  8
CSLAYER1
 62
     4
100
AcDbLine
 10
14.8204195
 20
74.62922199999995
 30
0.0
 11
16.4503325
 21
74.62922199999995
 31
0.0
  0
LINE
  5
235
330
1E
100
AcDbEntity
  8
CSLAYER1
 62
     4
100
AcDbLine
 10
14.8204195
 20
74.62922199999995
 30
0.0
 11
16.269308
 21
75.01745049999991
 31
0.0
  0
LINE
  5
236
330
1E
100
AcDbEntity
  8
CSLAYER1
 62
     4
100
AcDbLine
 10
14.8204195
 20
74.62922199999995
 30
0.0
 11
16.269308
 21
74.2409935
 31
0.0
  0
ENDSEC
  0
SECTION
  2
OBJECTS
  0
DICTIONARY
  5
C
330
0
100
AcDbDictionary
  3
ACAD_GROUP
350
D
  3
ACAD_LAYOUT
350
19
  3
ACAD_MLINESTYLE
350
16
  3
ACAD_PLOTSETTINGS
350
18
1001
ACAD
1000
TREAT_AS_HARD
1070
     0
1000
TREAT_AS_HARD
1070
     0
1000
TREAT_AS_HARD
1070
     0
  0
DICTIONARY
  5
18F
330
1E
100
AcDbDictionary
  3
ACAD_LAYOUTSELFREF
350
23B
1001
ACAD
1000
TREAT_AS_HARD
1070
     0
1000
TREAT_AS_HARD
1070
     0
  0
DICTIONARY
  5
18D
330
1A
100
AcDbDictionary
  3
ACAD_LAYOUTSELFREF
350
23A
1001
ACAD
1000
TREAT_AS_HARD
1070
     0
1000
TREAT_AS_HARD
1070
     0
  0
DICTIONARY
  5
D
102
{ACAD_REACTORS
330
C
102
}
330
C
100
AcDbDictionary
1001
ACAD
1000
TREAT_AS_HARD
1070
     0
1000
TREAT_AS_HARD
1070
     0
1000
TREAT_AS_HARD
1070
     0
  0
DICTIONARY
  5
19
102
{ACAD_REACTORS
330
C
102
}
330
C
100
AcDbDictionary
1001
ACAD
1000
TREAT_AS_HARD
1070
     0
1000
TREAT_AS_HARD
1070
     0
1000
TREAT_AS_HARD
1070
     0
  0
DICTIONARY
  5
16
102
{ACAD_REACTORS
330
C
102
}
330
C
100
AcDbDictionary
  3
STANDARD
350
17
1001
ACAD
1000
TREAT_AS_HARD
1070
     0
1000
TREAT_AS_HARD
1070
     0
1000
TREAT_AS_HARD
1070
     0
  0
DICTIONARY
  5
18
102
{ACAD_REACTORS
330
C
102
}
330
C
100
AcDbDictionary
1001
ACAD
1000
TREAT_AS_HARD
1070
     0
1000
TREAT_AS_HARD
1070
     0
1000
TREAT_AS_HARD
1070
     0
  0
XRECORD
  5
23B
102
{ACAD_REACTORS
330
18F
102
}
330
18F
100
AcDbXrecord
340
1E
  0
XRECORD
  5
23A
102
{ACAD_REACTORS
330
18D
102
}
330
18D
100
AcDbXrecord
340
1A
  0
MLINESTYLE
  5
17
102
{ACAD_REACTORS
330
16
102
}
330
16
100
AcDbMlineStyle
  2
STANDARD
 70
     0
  3

 62
   256
 51
90.0
 52
90.0
 71
     2
 49
0.5
 62
   256
  6
BYLAYER
 49
-0.5
 62
   256
  6
BYLAYER
  0
ENDSEC
  0
EOF
