  0
SECTION
  2
HEADER
  9
$ACADVER
  1
AC1012
  9
$DWGCODEPAGE
  3
dos932
  9
$INSBASE
 10
0.0
 20
0.0
 30
0.0
  9
$EXTMIN
 10
0.4894416100455601
 20
0.4902653820932415
 30
-0.0000000349181948
  9
$EXTMAX
 10
142.0194402083515
 20
99.50454747945139
 30
0.0000000814935747
  9
$LIMMIN
 10
0.0
 20
0.0
  9
$LIMMAX
 10
297.0
 20
210.0
  9
$ORTHOMODE
 70
     0
  9
$REGENMODE
 70
     1
  9
$FILLMODE
 70
     1
  9
$QTEXTMODE
 70
     0
  9
$MIRRTEXT
 70
     1
  9
$DRAGMODE
 70
     2
  9
$LTSCALE
 40
15.0
  9
$OSMODE
 70
    37
  9
$ATTMODE
 70
     1
  9
$TEXTSIZE
 40
0.2
  9
$TRACEWID
 40
0.05
  9
$TEXTSTYLE
  7
GOTHIC
  9
$CLAYER
  8
CSLAYER1
  9
$CELTYPE
  6
BYLAYER
  9
$CECOLOR
 62
   256
  9
$CELTSCALE
 40
1.0
  9
$DELOBJ
 70
     1
  9
$DISPSILH
 70
     0
  9
$DIMSCALE
 40
1.0
  9
$DIMASZ
 40
0.18
  9
$DIMEXO
 40
0.0625
  9
$DIMDLI
 40
0.38
  9
$DIMRND
 40
0.0
  9
$DIMDLE
 40
0.0
  9
$DIMEXE
 40
0.18
  9
$DIMTP
 40
0.0
  9
$DIMTM
 40
0.0
  9
$DIMTXT
 40
0.18
  9
$DIMCEN
 40
0.09
  9
$DIMTSZ
 40
0.0
  9
$DIMTOL
 70
     0
  9
$DIMLIM
 70
     0
  9
$DIMTIH
 70
     1
  9
$DIMTOH
 70
     1
  9
$DIMSE1
 70
     0
  9
$DIMSE2
 70
     0
  9
$DIMTAD
 70
     0
  9
$DIMZIN
 70
     0
  9
$DIMBLK
  1

  9
$DIMASO
 70
     1
  9
$DIMSHO
 70
     1
  9
$DIMPOST
  1

  9
$DIMAPOST
  1

  9
$DIMALT
 70
     0
  9
$DIMALTD
 70
     2
  9
$DIMALTF
 40
25.4
  9
$DIMLFAC
 40
1.0
  9
$DIMTOFL
 70
     0
  9
$DIMTVP
 40
0.0
  9
$DIMTIX
 70
     0
  9
$DIMSOXD
 70
     0
  9
$DIMSAH
 70
     0
  9
$DIMBLK1
  1

  9
$DIMBLK2
  1

  9
$DIMSTYLE
  2
STANDARD
  9
$DIMCLRD
 70
     0
  9
$DIMCLRE
 70
     0
  9
$DIMCLRT
 70
     0
  9
$DIMTFAC
 40
1.0
  9
$DIMGAP
 40
0.09
  9
$DIMJUST
 70
     0
  9
$DIMSD1
 70
     0
  9
$DIMSD2
 70
     0
  9
$DIMTOLJ
 70
     1
  9
$DIMTZIN
 70
     0
  9
$DIMALTZ
 70
     0
  9
$DIMALTTZ
 70
     0
  9
$DIMFIT
 70
     3
  9
$DIMUPT
 70
     0
  9
$DIMUNIT
 70
     2
  9
$DIMDEC
 70
     4
  9
$DIMTDEC
 70
     4
  9
$DIMALTU
 70
     2
  9
$DIMALTTD
 70
     2
  9
$DIMTXSTY
  7
STANDARD
  9
$DIMAUNIT
 70
     0
  9
$LUNITS
 70
     2
  9
$LUPREC
 70
     4
  9
$SKETCHINC
 40
0.1
  9
$FILLETRAD
 40
0.0
  9
$AUNITS
 70
     0
  9
$AUPREC
 70
     0
  9
$MENU
  1
ACAD
  9
$ELEVATION
 40
0.0
  9
$PELEVATION
 40
0.0
  9
$THICKNESS
 40
0.0
  9
$LIMCHECK
 70
     0
  9
$BLIPMODE
 70
     1
  9
$CHAMFERA
 40
0.0
  9
$CHAMFERB
 40
0.0
  9
$CHAMFERC
 40
0.0
  9
$CHAMFERD
 40
0.0
  9
$SKPOLY
 70
     0
  9
$TDCREATE
 40
2453476.999999999
  9
$TDUPDATE
 40
2453575.543503391
  9
$TDINDWG
 40
0.0008374190
  9
$TDUSRTIMER
 40
0.0008373032
  9
$USRTIMER
 70
     1
  9
$ANGBASE
 50
0.0
  9
$ANGDIR
 70
     0
  9
$PDMODE
 70
     0
  9
$PDSIZE
 40
0.0
  9
$PLINEWID
 40
0.0
  9
$COORDS
 70
     0
  9
$SPLFRAME
 70
     0
  9
$SPLINETYPE
 70
     6
  9
$SPLINESEGS
 70
     8
  9
$ATTDIA
 70
     0
  9
$ATTREQ
 70
     1
  9
$HANDLING
 70
 22529
  9
$HANDSEED
  5
1EA
  9
$SURFTAB1
 70
     6
  9
$SURFTAB2
 70
     6
  9
$SURFTYPE
 70
     6
  9
$SURFU
 70
     6
  9
$SURFV
 70
     6
  9
$UCSNAME
  2

  9
$UCSORG
 10
0.0
 20
0.0
 30
0.0
  9
$UCSXDIR
 10
1.0
 20
0.0
 30
0.0
  9
$UCSYDIR
 10
0.0
 20
1.0
 30
0.0
  9
$PUCSNAME
  2

  9
$PUCSORG
 10
0.0
 20
0.0
 30
0.0
  9
$PUCSXDIR
 10
1.0
 20
0.0
 30
0.0
  9
$PUCSYDIR
 10
0.0
 20
1.0
 30
0.0
  9
$USERI1
 70
     0
  9
$USERI2
 70
     0
  9
$USERI3
 70
     0
  9
$USERI4
 70
     0
  9
$USERI5
 70
     0
  9
$USERR1
 40
0.0
  9
$USERR2
 40
0.0
  9
$USERR3
 40
0.0
  9
$USERR4
 40
0.0
  9
$USERR5
 40
0.0
  9
$WORLDVIEW
 70
     1
  9
$SHADEDGE
 70
     3
  9
$SHADEDIF
 70
    70
  9
$TILEMODE
 70
     1
  9
$MAXACTVP
 70
    64
  9
$PINSBASE
 10
0.0
 20
0.0
 30
0.0
  9
$PLIMCHECK
 70
     0
  9
$PEXTMIN
 10
1.000000000000000E+20
 20
1.000000000000000E+20
 30
1.000000000000000E+20
  9
$PEXTMAX
 10
-1.000000000000000E+20
 20
-1.000000000000000E+20
 30
-1.000000000000000E+20
  9
$PLIMMIN
 10
0.0
 20
0.0
  9
$PLIMMAX
 10
12.0
 20
9.0
  9
$UNITMODE
 70
     0
  9
$VISRETAIN
 70
     1
  9
$PLINEGEN
 70
     0
  9
$PSLTSCALE
 70
     1
  9
$TREEDEPTH
 70
  3020
  9
$PICKSTYLE
 70
     3
  9
$CMLSTYLE
  2
STANDARD
  9
$CMLJUST
 70
     0
  9
$CMLSCALE
 40
1.0
  9
$SAVEIMAGES
 70
     1
  0
ENDSEC
  0
SECTION
  2
CLASSES
  0
CLASS
  1
ACDBDICTIONARYWDFLT
  2
AcDbDictionaryWithDefault
  3
AutoCAD 2000
 90
    32768
280
     0
281
     0
  0
CLASS
  1
ACDBPLACEHOLDER
  2
AcDbPlaceHolder
  3
AutoCAD 2000
 90
    32768
280
     0
281
     0
  0
CLASS
  1
LAYOUT
  2
AcDbLayout
  3
AutoCAD 2000
 90
    32768
280
     0
281
     0
  0
CLASS
  1
DICTIONARYVAR
  2
AcDbDictionaryVar
  3
AutoCAD 2000
 90
    32768
280
     0
281
     0
  0
CLASS
  1
LONG_TRANSACTION
  2
AcDbLongTransaction
  3
AutoCAD 2000
 90
    32768
280
     0
281
     0
  0
CLASS
  1
LWPOLYLINE
  2
AcDbPolyline
  3
AutoCAD 2000
 90
    32768
280
     0
281
     1
  0
CLASS
  1
HATCH
  2
AcDbHatch
  3
AutoCAD 2000
 90
    32768
280
     0
281
     1
  0
CLASS
  1
XRECORD
  2
AcDbXrecord
  3
AutoCAD 2000
 90
    32768
280
     0
281
     0
  0
CLASS
  1
LONG_TRANSACTION
  2
AcDbLongTransaction
  3
AutoCAD 2000
 90
    32768
280
     0
281
     0
  0
CLASS
  1
LWPOLYLINE
  2
AcDbPolyline
  3
AutoCAD 2000
 90
    32768
280
     0
281
     1
  0
CLASS
  1
HATCH
  2
AcDbHatch
  3
AutoCAD 2000
 90
    32768
280
     0
281
     1
  0
CLASS
  1
XRECORD
  2
AcDbXrecord
  3
AutoCAD 2000
 90
    32768
280
     0
281
     0
  0
CLASS
  1
LONG_TRANSACTION
  2
AcDbLongTransaction
  3
AutoCAD 2000
 90
    32768
280
     0
281
     0
  0
CLASS
  1
LWPOLYLINE
  2
AcDbPolyline
  3
AutoCAD 2000
 90
    32768
280
     0
281
     1
  0
CLASS
  1
HATCH
  2
AcDbHatch
  3
AutoCAD 2000
 90
    32768
280
     0
281
     1
  0
CLASS
  1
XRECORD
  2
AcDbXrecord
  3
AutoCAD 2000
 90
    32768
280
     0
281
     0
  0
ENDSEC
  0
SECTION
  2
TABLES
  0
TABLE
  2
VPORT
  5
8
330
0
100
AcDbSymbolTable
 70
     2
  0
VPORT
  5
1E7
330
8
100
AcDbSymbolTableRecord
100
AcDbViewportTableRecord
  2
*ACTIVE
 70
     0
 10
0.0
 20
0.0
 11
1.0
 21
1.0
 12
71.25444090919853
 22
49.99740643077231
 13
0.0
 23
0.0
 14
1.0
 24
1.0
 15
0.0
 25
0.0
 16
0.0
 26
0.0
 36
1.0
 17
0.0
 27
0.0
 37
0.0
 40
99.73264448258687
 41
1.458837772397094
 42
50.0
 43
0.0
 44
0.0
 50
0.0
 51
0.0
 71
     0
 72
   100
 73
     1
 74
     1
 75
     0
 76
     0
 77
     0
 78
     0
  0
ENDTAB
  0
TABLE
  2
LTYPE
  5
5
330
0
100
AcDbSymbolTable
 70
     4
  0
LTYPE
  5
13
330
5
100
AcDbSymbolTableRecord
100
AcDbLinetypeTableRecord
  2
BYBLOCK
 70
     0
  3

 72
    65
 73
     0
 40
0.0
  0
LTYPE
  5
14
330
5
100
AcDbSymbolTableRecord
100
AcDbLinetypeTableRecord
  2
BYLAYER
 70
     0
  3

 72
    65
 73
     0
 40
0.0
  0
LTYPE
  5
15
330
5
100
AcDbSymbolTableRecord
100
AcDbLinetypeTableRecord
  2
CONTINUOUS
 70
     0
  3
Solid line
 72
    65
 73
     0
 40
0.0
  0
LTYPE
  5
23
330
5
100
AcDbSymbolTableRecord
100
AcDbLinetypeTableRecord
  2
DASHED
 70
     0
  3
__ __ __ __ __ __ __ __ __ __ __ __ __ __ __
 72
    65
 73
     2
 40
0.75
 49
0.5
 74
     0
 49
-0.25
 74
     0
  0
LTYPE
  5
25
330
5
100
AcDbSymbolTableRecord
100
AcDbLinetypeTableRecord
  2
DOT
 70
     0
  3
...............................................
 72
    65
 73
     2
 40
0.25
 49
0.0
 74
     0
 49
-0.25
 74
     0
  0
LTYPE
  5
28
330
5
100
AcDbSymbolTableRecord
100
AcDbLinetypeTableRecord
  2
CENTER
 70
     0
  3
____ _ ____ _ ____ _ ____ _ ____ _ ____ _ ____ 
 72
    65
 73
     4
 40
2.0
 49
1.25
 74
     0
 49
-0.25
 74
     0
 49
0.25
 74
     0
 49
-0.25
 74
     0
  0
ENDTAB
  0
TABLE
  2
LAYER
  5
2
330
0
100
AcDbSymbolTable
 70
     3
  0
LAYER
  5
10
330
2
100
AcDbSymbolTableRecord
100
AcDbLayerTableRecord
  2
0
 70
     0
 62
     7
  6
CONTINUOUS
  0
LAYER
  5
22
330
2
100
AcDbSymbolTableRecord
100
AcDbLayerTableRecord
  2
CSLAYER1
 70
     0
 62
     7
  6
CONTINUOUS
  0
LAYER
  5
169
330
2
100
AcDbSymbolTableRecord
100
AcDbLayerTableRecord
  2
DEFPOINTS
 70
     0
 62
     7
  6
CONTINUOUS
  0
ENDTAB
  0
TABLE
  2
STYLE
  5
3
330
0
100
AcDbSymbolTable
 70
     3
  0
STYLE
  5
11
330
3
100
AcDbSymbolTableRecord
100
AcDbTextStyleTableRecord
  2
STANDARD
 70
     0
 40
0.0
 41
1.0
 50
0.0
 71
     0
 42
0.2
  3
txt
  4
extfont.shx
  0
STYLE
  5
3A
330
3
100
AcDbSymbolTableRecord
100
AcDbTextStyleTableRecord
  2
FX_FONT
 70
     0
 40
1.0
 41
1.0
 50
0.0
 71
     0
 42
1.0
  3
monotxt
  4
bigfont
  0
STYLE
  5
161
330
3
100
AcDbSymbolTableRecord
100
AcDbTextStyleTableRecord
  2
GOTHIC
 70
     0
 40
0.0
 41
1.0
 50
0.0
 71
     0
 42
0.2
  3
txt.shx
  4
extfont.shx
  0
ENDTAB
  0
TABLE
  2
VIEW
  5
6
330
0
100
AcDbSymbolTable
 70
     0
  0
ENDTAB
  0
TABLE
  2
UCS
  5
7
330
0
100
AcDbSymbolTable
 70
     0
  0
ENDTAB
  0
TABLE
  2
APPID
  5
9
330
0
100
AcDbSymbolTable
 70
     1
  0
APPID
  5
12
330
9
100
AcDbSymbolTableRecord
100
AcDbRegAppTableRecord
  2
ACAD
 70
     0
  0
ENDTAB
  0
TABLE
  2
DIMSTYLE
  5
A
330
0
100
AcDbSymbolTable
 70
     1
  0
DIMSTYLE
105
15E
330
A
100
AcDbSymbolTableRecord
100
AcDbDimStyleTableRecord
  2
STANDARD
 70
     0
  3

  4

  5

  6

  7

 40
1.0
 41
0.18
 42
0.0625
 43
0.38
 44
0.18
 45
0.0
 46
0.0
 47
0.0
 48
0.0
140
0.18
141
0.09
142
0.0
143
25.4
144
1.0
145
0.0
146
1.0
147
0.09
 71
     0
 72
     0
 73
     1
 74
     1
 75
     0
 76
     0
 77
     0
 78
     0
170
     0
171
     2
172
     0
173
     0
174
     0
175
     0
176
     0
177
     0
178
     0
270
     2
271
     4
272
     4
273
     2
274
     2
340
11
275
     0
280
     0
281
     0
282
     0
283
     1
284
     0
285
     0
286
     0
287
     3
288
     0
  0
ENDTAB
  0
TABLE
  2
BLOCK_RECORD
  5
1
330
0
100
AcDbSymbolTable
 70
    17
  0
BLOCK_RECORD
  5
1E
102
{ACAD_XDICTIONARY
360
167
102
}
330
1
100
AcDbSymbolTableRecord
100
AcDbBlockTableRecord
  2
*MODEL_SPACE
  0
BLOCK_RECORD
  5
1A
102
{ACAD_XDICTIONARY
360
165
102
}
330
1
100
AcDbSymbolTableRecord
100
AcDbBlockTableRecord
  2
*PAPER_SPACE
  0
BLOCK_RECORD
  5
3F
330
1
100
AcDbSymbolTableRecord
100
AcDbBlockTableRecord
  2
FXDIM0000
  0
BLOCK_RECORD
  5
43
330
1
100
AcDbSymbolTableRecord
100
AcDbBlockTableRecord
  2
FXDIM0001
  0
BLOCK_RECORD
  5
4D
330
1
100
AcDbSymbolTableRecord
100
AcDbBlockTableRecord
  2
FXDIM0002
  0
BLOCK_RECORD
  5
57
330
1
100
AcDbSymbolTableRecord
100
AcDbBlockTableRecord
  2
*D3
  0
BLOCK_RECORD
  5
61
330
1
100
AcDbSymbolTableRecord
100
AcDbBlockTableRecord
  2
*D4
  0
BLOCK_RECORD
  5
6C
330
1
100
AcDbSymbolTableRecord
100
AcDbBlockTableRecord
  2
*D5
  0
BLOCK_RECORD
  5
73
330
1
100
AcDbSymbolTableRecord
100
AcDbBlockTableRecord
  2
*D6
  0
BLOCK_RECORD
  5
7E
330
1
100
AcDbSymbolTableRecord
100
AcDbBlockTableRecord
  2
*D7
  0
BLOCK_RECORD
  5
85
330
1
100
AcDbSymbolTableRecord
100
AcDbBlockTableRecord
  2
*D8
  0
BLOCK_RECORD
  5
90
330
1
100
AcDbSymbolTableRecord
100
AcDbBlockTableRecord
  2
*D9
  0
BLOCK_RECORD
  5
9B
330
1
100
AcDbSymbolTableRecord
100
AcDbBlockTableRecord
  2
*D10
  0
BLOCK_RECORD
  5
A8
330
1
100
AcDbSymbolTableRecord
100
AcDbBlockTableRecord
  2
*D11
  0
BLOCK_RECORD
  5
B1
330
1
100
AcDbSymbolTableRecord
100
AcDbBlockTableRecord
  2
*D12
  0
BLOCK_RECORD
  5
BC
330
1
100
AcDbSymbolTableRecord
100
AcDbBlockTableRecord
  2
FXDIM0003
  0
BLOCK_RECORD
  5
C4
330
1
100
AcDbSymbolTableRecord
100
AcDbBlockTableRecord
  2
*D14
  0
BLOCK_RECORD
  5
16A
330
1
100
AcDbSymbolTableRecord
100
AcDbBlockTableRecord
  2
*D15
  0
BLOCK_RECORD
  5
178
330
1
100
AcDbSymbolTableRecord
100
AcDbBlockTableRecord
  2
*D16
  0
ENDTAB
  0
ENDSEC
  0
SECTION
  2
BLOCKS
  0
BLOCK
  5
1F
330
1E
100
AcDbEntity
  8
0
100
AcDbBlockBegin
  2
*MODEL_SPACE
 70
     0
 10
0.0
 20
0.0
 30
0.0
  3
*MODEL_SPACE
  1

  0
ENDBLK
  5
20
330
1E
100
AcDbEntity
  8
0
100
AcDbBlockEnd
  0
BLOCK
  5
1B
330
1A
100
AcDbEntity
 67
     1
  8
0
100
AcDbBlockBegin
  2
*PAPER_SPACE
 70
     0
 10
0.0
 20
0.0
 30
0.0
  3
*PAPER_SPACE
  1

  0
ENDBLK
  5
1C
330
1A
100
AcDbEntity
 67
     1
  8
0
100
AcDbBlockEnd
  0
BLOCK
  5
40
330
3F
100
AcDbEntity
  8
0
100
AcDbBlockBegin
  2
FXDIM0000
 70
     0
 10
0.0
 20
0.0
 30
0.0
  3
FXDIM0000
  1

  0
LINE
  5
41
330
3F
100
AcDbEntity
  8
CSLAYER1
  6
CONTINUOUS
 62
     4
100
AcDbLine
 10
122.968294
 20
91.38916800000002
 30
0.0
 11
122.9961499999999
 21
91.38916800000002
 31
0.0
  0
ENDBLK
  5
42
330
3F
100
AcDbEntity
  8
0
100
AcDbBlockEnd
  0
BLOCK
  5
44
330
43
100
AcDbEntity
  8
0
100
AcDbBlockBegin
  2
FXDIM0001
 70
     0
 10
0.0
 20
0.0
 30
0.0
  3
FXDIM0001
  1

  0
LINE
  5
45
330
43
100
AcDbEntity
  8
CSLAYER1
  6
CONTINUOUS
 62
     4
100
AcDbLine
 10
153.870395
 20
91.379605
 30
0.0
 11
155.8703949999999
 21
94.84370699999999
 31
0.0
  0
LINE
  5
46
330
43
100
AcDbEntity
  8
CSLAYER1
  6
CONTINUOUS
 62
     4
100
AcDbLine
 10
151.870395
 20
94.84370699999999
 30
0.0
 11
163.870395
 21
94.84370699999999
 31
0.0
  0
LINE
  5
47
330
43
100
AcDbEntity
  8
CSLAYER1
  6
CONTINUOUS
 62
     4
100
AcDbLine
 10
151.870395
 20
94.84370699999999
 30
0.0
 11
153.870395
 21
91.379605
 31
0.0
  0
LINE
  5
48
330
43
100
AcDbEntity
  8
CSLAYER1
  6
CONTINUOUS
 62
     4
100
AcDbLine
 10
157.8703949999999
 20
91.379605
 30
0.0
 11
159.8703949999999
 21
94.84370699999999
 31
0.0
  0
LINE
  5
49
330
43
100
AcDbEntity
  8
CSLAYER1
  6
CONTINUOUS
 62
     4
100
AcDbLine
 10
155.8703949999999
 20
94.84370699999999
 30
0.0
 11
157.8703949999999
 21
91.379605
 31
0.0
  0
LINE
  5
4A
330
43
100
AcDbEntity
  8
CSLAYER1
  6
CONTINUOUS
 62
     4
100
AcDbLine
 10
161.870395
 20
91.379605
 30
0.0
 11
163.870395
 21
94.84370699999999
 31
0.0
  0
LINE
  5
4B
330
43
100
AcDbEntity
  8
CSLAYER1
  6
CONTINUOUS
 62
     4
100
AcDbLine
 10
159.8703949999999
 20
94.84370699999999
 30
0.0
 11
161.870395
 21
91.379605
 31
0.0
  0
ENDBLK
  5
4C
330
43
100
AcDbEntity
  8
0
100
AcDbBlockEnd
  0
BLOCK
  5
4E
330
4D
100
AcDbEntity
  8
0
100
AcDbBlockBegin
  2
FXDIM0002
 70
     0
 10
0.0
 20
0.0
 30
0.0
  3
FXDIM0002
  1

  0
LINE
  5
4F
330
4D
100
AcDbEntity
  8
CSLAYER1
  6
CONTINUOUS
 62
     4
100
AcDbLine
 10
156.8703949999999
 20
73.379605
 30
0.0
 11
154.870395
 21
69.915504
 31
0.0
  0
LINE
  5
50
330
4D
100
AcDbEntity
  8
CSLAYER1
  6
CONTINUOUS
 62
     4
100
AcDbLine
 10
154.870395
 20
69.915504
 30
0.0
 11
166.870395
 21
69.915504
 31
0.0
  0
LINE
  5
51
330
4D
100
AcDbEntity
  8
CSLAYER1
  6
CONTINUOUS
 62
     4
100
AcDbLine
 10
158.870395
 20
69.915504
 30
0.0
 11
156.8703949999999
 21
73.379605
 31
0.0
  0
LINE
  5
52
330
4D
100
AcDbEntity
  8
CSLAYER1
  6
CONTINUOUS
 62
     4
100
AcDbLine
 10
160.8703949999999
 20
73.379605
 30
0.0
 11
158.870395
 21
69.915504
 31
0.0
  0
LINE
  5
53
330
4D
100
AcDbEntity
  8
CSLAYER1
  6
CONTINUOUS
 62
     4
100
AcDbLine
 10
162.870395
 20
69.915504
 30
0.0
 11
160.8703949999999
 21
73.379605
 31
0.0
  0
LINE
  5
54
330
4D
100
AcDbEntity
  8
CSLAYER1
  6
CONTINUOUS
 62
     4
100
AcDbLine
 10
164.8703949999999
 20
73.379605
 30
0.0
 11
162.870395
 21
69.915504
 31
0.0
  0
LINE
  5
55
330
4D
100
AcDbEntity
  8
CSLAYER1
  6
CONTINUOUS
 62
     4
100
AcDbLine
 10
166.870395
 20
69.915504
 30
0.0
 11
164.8703949999999
 21
73.379605
 31
0.0
  0
ENDBLK
  5
56
330
4D
100
AcDbEntity
  8
0
100
AcDbBlockEnd
  0
BLOCK
  5
58
330
57
100
AcDbEntity
  8
0
100
AcDbBlockBegin
  2
*D3
 70
     1
 10
0.0
 20
0.0
 30
0.0
  3
*D3
  1

  0
TEXT
  5
59
330
57
100
AcDbEntity
  8
CSLAYER1
 62
     4
100
AcDbText
 10
46.170996
 20
174.201076
 30
0.0
 40
3.0
  1
35%%d
 50
342.5000020357878
 41
1.285714337707252
 51
15.0
  7
FX_FONT
 72
     5
 11
54.754449
 21
171.4947239999998
 31
0.0
100
AcDbText
  0
ARC
  5
5A
330
57
100
AcDbEntity
  8
CSLAYER1
  6
CONTINUOUS
 62
     4
100
AcDbCircle
 10
40.856109
 20
142.3796049999999
 30
0.0
 40
30.946889
100
AcDbArc
 50
55.0
 51
90.0
  0
LINE
  5
5B
330
57
100
AcDbEntity
  8
CSLAYER1
  6
CONTINUOUS
 62
     4
100
AcDbLine
 10
58.606515
 20
167.7298129999998
 30
0.0
 11
55.787438
 21
168.755873
 31
0.0
  0
LINE
  5
5C
330
57
100
AcDbEntity
  8
CSLAYER1
  6
CONTINUOUS
 62
     4
100
AcDbLine
 10
58.606515
 20
167.7298129999998
 30
0.0
 11
56.678153
 21
170.0279459999999
 31
0.0
  0
LINE
  5
5D
330
57
100
AcDbEntity
  8
CSLAYER1
  6
CONTINUOUS
 62
     4
100
AcDbLine
 10
40.856109
 20
173.3264939999999
 30
0.0
 11
43.753887
 21
174.1029519999999
 31
0.0
  0
LINE
  5
5E
330
57
100
AcDbEntity
  8
CSLAYER1
  6
CONTINUOUS
 62
     4
100
AcDbLine
 10
40.856109
 20
173.3264939999999
 30
0.0
 11
43.753887
 21
172.5500369999999
 31
0.0
  0
LINE
  5
5F
330
57
100
AcDbEntity
  8
CSLAYER1
  6
CONTINUOUS
 62
     4
100
AcDbLine
 10
55.433836
 20
163.1987569999999
 30
0.0
 11
59.180092
 21
168.5489649999998
 31
0.0
  0
ENDBLK
  5
60
330
57
100
AcDbEntity
  8
0
100
AcDbBlockEnd
  0
BLOCK
  5
62
330
61
100
AcDbEntity
  8
0
100
AcDbBlockBegin
  2
*D4
 70
     1
 10
0.0
 20
0.0
 30
0.0
  3
*D4
  1

  0
TEXT
  5
63
330
61
100
AcDbEntity
  8
CSLAYER1
 62
     4
100
AcDbText
 10
75.32547
 20
134.879608
 30
0.0
 40
3.0
  1
20~21
 50
90.0
 41
1.111111111111111
 51
15.0
  7
FX_FONT
 72
     5
 11
75.32547
 21
149.879608
 31
0.0
100
AcDbText
  0
LINE
  5
64
330
61
100
AcDbEntity
  8
CSLAYER1
  6
CONTINUOUS
 62
     4
100
AcDbLine
 10
76.325469
 20
122.379605
 30
0.0
 11
76.325469
 21
162.3796049999999
 31
0.0
  0
LINE
  5
65
330
61
100
AcDbEntity
  8
CSLAYER1
  6
CONTINUOUS
 62
     4
100
AcDbLine
 10
76.325469
 20
122.379605
 30
0.0
 11
75.549012
 21
125.2773829999999
 31
0.0
  0
LINE
  5
66
330
61
100
AcDbEntity
  8
CSLAYER1
  6
CONTINUOUS
 62
     4
100
AcDbLine
 10
76.325469
 20
122.379605
 30
0.0
 11
77.101927
 21
125.2773829999999
 31
0.0
  0
LINE
  5
67
330
61
100
AcDbEntity
  8
CSLAYER1
  6
CONTINUOUS
 62
     4
100
AcDbLine
 10
76.325469
 20
162.3796049999999
 30
0.0
 11
75.549012
 21
159.481828
 31
0.0
  0
LINE
  5
68
330
61
100
AcDbEntity
  8
CSLAYER1
  6
CONTINUOUS
 62
     4
100
AcDbLine
 10
76.325469
 20
162.3796049999999
 30
0.0
 11
77.101927
 21
159.481828
 31
0.0
  0
LINE
  5
69
330
61
100
AcDbEntity
  8
CSLAYER1
  6
CONTINUOUS
 62
     4
100
AcDbLine
 10
127.4703949999999
 20
122.379605
 30
0.0
 11
75.32546899999998
 21
122.379605
 31
0.0
  0
LINE
  5
6A
330
61
100
AcDbEntity
  8
CSLAYER1
  6
CONTINUOUS
 62
     4
100
AcDbLine
 10
127.4703949999999
 20
162.3796049999999
 30
0.0
 11
75.32546899999998
 21
162.3796049999999
 31
0.0
  0
ENDBLK
  5
6B
330
61
100
AcDbEntity
  8
0
100
AcDbBlockEnd
  0
BLOCK
  5
6D
330
6C
100
AcDbEntity
  8
0
100
AcDbBlockBegin
  2
*D5
 70
     1
 10
0.0
 20
0.0
 30
0.0
  3
*D5
  1

  0
TEXT
  5
6E
330
6C
100
AcDbEntity
  8
CSLAYER1
 62
     4
100
AcDbText
 10
103.139942
 20
132.8614159999997
 30
0.0
 40
3.0
  1
R25
 50
58.56157513345238
 41
1.124999889085207
 51
15.0
  7
FX_FONT
 72
     5
 11
107.834179
 21
140.5402259999999
 31
0.0
100
AcDbText
  0
LINE
  5
6F
330
6C
100
AcDbEntity
  8
CSLAYER1
  6
CONTINUOUS
 62
     4
100
AcDbLine
 10
102.391297
 20
129.719546
 30
0.0
 11
116.3732039999999
 21
152.591081
 31
0.0
  0
LINE
  5
70
330
6C
100
AcDbEntity
  8
CSLAYER1
  6
CONTINUOUS
 62
     4
100
AcDbLine
 10
102.391297
 20
129.719546
 30
0.0
 11
103.240251
 21
132.5969189999999
 31
0.0
  0
LINE
  5
71
330
6C
100
AcDbEntity
  8
CSLAYER1
  6
CONTINUOUS
 62
     4
100
AcDbLine
 10
102.391297
 20
129.719546
 30
0.0
 11
104.5652
 21
131.7869469999999
 31
0.0
  0
ENDBLK
  5
72
330
6C
100
AcDbEntity
  8
0
100
AcDbBlockEnd
  0
BLOCK
  5
74
330
73
100
AcDbEntity
  8
0
100
AcDbBlockBegin
  2
*D6
 70
     1
 10
0.0
 20
0.0
 30
0.0
  3
*D6
  1

  0
TEXT
  5
75
330
73
100
AcDbEntity
  8
CSLAYER1
 62
     4
100
AcDbText
 10
126.4703979999999
 20
105.8934629999999
 30
0.0
 40
3.0
  1
13
 41
1.200000000000017
 51
15.0
  7
FX_FONT
 72
     5
 11
132.470398
 21
105.8934629999999
 31
0.0
100
AcDbText
  0
LINE
  5
76
330
73
100
AcDbEntity
  8
CSLAYER1
  6
CONTINUOUS
 62
     4
100
AcDbLine
 10
116.470395
 20
104.8934679999999
 30
0.0
 11
142.470395
 21
104.8934679999999
 31
0.0
  0
LINE
  5
77
330
73
100
AcDbEntity
  8
CSLAYER1
  6
CONTINUOUS
 62
     4
100
AcDbLine
 10
116.470395
 20
104.8934679999999
 30
0.0
 11
119.368172
 21
105.669925
 31
0.0
  0
LINE
  5
78
330
73
100
AcDbEntity
  8
CSLAYER1
  6
CONTINUOUS
 62
     4
100
AcDbLine
 10
116.470395
 20
104.8934679999999
 30
0.0
 11
119.368172
 21
104.117011
 31
0.0
  0
LINE
  5
79
330
73
100
AcDbEntity
  8
CSLAYER1
  6
CONTINUOUS
 62
     4
100
AcDbLine
 10
142.470395
 20
104.8934679999999
 30
0.0
 11
139.5726169999997
 21
105.669925
 31
0.0
  0
LINE
  5
7A
330
73
100
AcDbEntity
  8
CSLAYER1
  6
CONTINUOUS
 62
     4
100
AcDbLine
 10
142.470395
 20
104.8934679999999
 30
0.0
 11
139.5726169999997
 21
104.117011
 31
0.0
  0
LINE
  5
7B
330
73
100
AcDbEntity
  8
CSLAYER1
  6
CONTINUOUS
 62
     4
100
AcDbLine
 10
116.470395
 20
92.37960499999999
 30
0.0
 11
116.470395
 21
105.8934679999999
 31
0.0
  0
LINE
  5
7C
330
73
100
AcDbEntity
  8
CSLAYER1
  6
CONTINUOUS
 62
     4
100
AcDbLine
 10
142.470395
 20
100.0287479999999
 30
0.0
 11
142.470395
 21
105.8934679999999
 31
0.0
  0
ENDBLK
  5
7D
330
73
100
AcDbEntity
  8
0
100
AcDbBlockEnd
  0
BLOCK
  5
7F
330
7E
100
AcDbEntity
  8
0
100
AcDbBlockBegin
  2
*D7
 70
     1
 10
0.0
 20
0.0
 30
0.0
  3
*D7
  1

  0
TEXT
  5
80
330
7E
100
AcDbEntity
  8
CSLAYER1
 62
     4
100
AcDbText
 10
51.089927
 20
132.277148
 30
0.0
 40
3.0
  1
R45
 50
7.930756595011952
 41
1.124999891724695
 51
15.0
  7
FX_FONT
 72
     5
 11
60.003846
 21
133.518934
 31
0.0
100
AcDbText
  0
LINE
  5
81
330
7E
100
AcDbEntity
  8
CSLAYER1
  6
CONTINUOUS
 62
     4
100
AcDbLine
 10
41.71691
 20
129.961746
 30
0.0
 11
69.65281899999999
 21
133.853459
 31
0.0
  0
LINE
  5
82
330
7E
100
AcDbEntity
  8
CSLAYER1
  6
CONTINUOUS
 62
     4
100
AcDbLine
 10
41.71691
 20
129.961746
 30
0.0
 11
44.47983899999999
 21
131.130601
 31
0.0
  0
LINE
  5
83
330
7E
100
AcDbEntity
  8
CSLAYER1
  6
CONTINUOUS
 62
     4
100
AcDbLine
 10
41.71691
 20
129.961746
 30
0.0
 11
44.694105
 21
129.5925389999997
 31
0.0
  0
ENDBLK
  5
84
330
7E
100
AcDbEntity
  8
0
100
AcDbBlockEnd
  0
BLOCK
  5
86
330
85
100
AcDbEntity
  8
0
100
AcDbBlockBegin
  2
*D8
 70
     1
 10
0.0
 20
0.0
 30
0.0
  3
*D8
  1

  0
TEXT
  5
87
330
85
100
AcDbEntity
  8
CSLAYER1
 62
     4
100
AcDbText
 10
77.456518
 20
68.235118
 30
0.0
 40
2.897688
  1
切刃部有効11.5
 50
329.9999986610788
 41
0.7654096383121944
 51
15.0
  7
FX_FONT
 72
     5
 11
96.023996
 21
57.515179
 31
0.0
100
AcDbText
  0
LINE
  5
88
330
85
100
AcDbEntity
  8
CSLAYER1
  6
CONTINUOUS
 62
     4
100
AcDbLine
 10
76.739296
 20
67.494502
 30
0.0
 11
96.65788
 21
55.994502
 31
0.0
  0
LINE
  5
89
330
85
100
AcDbEntity
  8
CSLAYER1
  6
CONTINUOUS
 62
     4
100
AcDbLine
 10
76.739296
 20
67.494502
 30
0.0
 11
79.637073
 21
66.71804499999999
 31
0.0
  0
LINE
  5
8A
330
85
100
AcDbEntity
  8
CSLAYER1
  6
CONTINUOUS
 62
     4
100
AcDbLine
 10
76.739296
 20
67.494502
 30
0.0
 11
78.86061600000002
 21
65.373182
 31
0.0
  0
LINE
  5
8B
330
85
100
AcDbEntity
  8
CSLAYER1
  6
CONTINUOUS
 62
     4
100
AcDbLine
 10
96.65788
 20
55.994502
 30
0.0
 11
93.76010200000001
 21
56.770959
 31
0.0
  0
LINE
  5
8C
330
85
100
AcDbEntity
  8
CSLAYER1
  6
CONTINUOUS
 62
     4
100
AcDbLine
 10
96.65788
 20
55.994502
 30
0.0
 11
94.53656
 21
58.115823
 31
0.0
  0
LINE
  5
8D
330
85
100
AcDbEntity
  8
CSLAYER1
  6
CONTINUOUS
 62
     4
100
AcDbLine
 10
87.970395
 20
86.947337
 30
0.0
 11
76.239296
 21
66.628477
 31
0.0
  0
LINE
  5
8E
330
85
100
AcDbEntity
  8
CSLAYER1
  6
CONTINUOUS
 62
     4
100
AcDbLine
 10
107.888979
 20
75.447337
 30
0.0
 11
96.15788000000002
 21
55.128477
 31
0.0
  0
ENDBLK
  5
8F
330
85
100
AcDbEntity
  8
0
100
AcDbBlockEnd
  0
BLOCK
  5
91
330
90
100
AcDbEntity
  8
0
100
AcDbBlockBegin
  2
*D9
 70
     1
 10
0.0
 20
0.0
 30
0.0
  3
*D9
  1

  0
TEXT
  5
92
330
90
100
AcDbEntity
  8
CSLAYER1
 62
     4
100
AcDbText
 10
121.970398
 20
60.349865
 30
0.0
 40
3.0
  1
14.5
 41
1.090909090909081
 51
15.0
  7
FX_FONT
 72
     5
 11
133.9703979999999
 21
60.349865
 31
0.0
100
AcDbText
  0
LINE
  5
93
330
90
100
AcDbEntity
  8
CSLAYER1
  6
CONTINUOUS
 62
     4
100
AcDbLine
 10
113.470395
 20
59.349863
 30
0.0
 11
142.470395
 21
59.349863
 31
0.0
  0
LINE
  5
94
330
90
100
AcDbEntity
  8
CSLAYER1
  6
CONTINUOUS
 62
     4
100
AcDbLine
 10
113.470395
 20
59.349863
 30
0.0
 11
116.368172
 21
60.12631999999999
 31
0.0
  0
LINE
  5
95
330
90
100
AcDbEntity
  8
CSLAYER1
  6
CONTINUOUS
 62
     4
100
AcDbLine
 10
113.470395
 20
59.349863
 30
0.0
 11
116.368172
 21
58.57340500000001
 31
0.0
  0
LINE
  5
96
330
90
100
AcDbEntity
  8
CSLAYER1
  6
CONTINUOUS
 62
     4
100
AcDbLine
 10
142.470395
 20
59.349863
 30
0.0
 11
139.5726169999997
 21
60.12631999999999
 31
0.0
  0
LINE
  5
97
330
90
100
AcDbEntity
  8
CSLAYER1
  6
CONTINUOUS
 62
     4
100
AcDbLine
 10
142.470395
 20
59.349863
 30
0.0
 11
139.5726169999997
 21
58.57340500000001
 31
0.0
  0
LINE
  5
98
330
90
100
AcDbEntity
  8
CSLAYER1
  6
CONTINUOUS
 62
     4
100
AcDbLine
 10
113.470395
 20
72.37960499999998
 30
0.0
 11
113.470395
 21
58.349863
 31
0.0
  0
LINE
  5
99
330
90
100
AcDbEntity
  8
CSLAYER1
  6
CONTINUOUS
 62
     4
100
AcDbLine
 10
142.470395
 20
65.930462
 30
0.0
 11
142.470395
 21
58.349863
 31
0.0
  0
ENDBLK
  5
9A
330
90
100
AcDbEntity
  8
0
100
AcDbBlockEnd
  0
BLOCK
  5
9C
330
9B
100
AcDbEntity
  8
0
100
AcDbBlockBegin
  2
*D10
 70
     1
 10
0.0
 20
0.0
 30
0.0
  3
*D10
  1

  0
TEXT
  5
9D
330
9B
100
AcDbEntity
  8
CSLAYER1
 62
     4
100
AcDbText
 10
70.380859
 20
80.95266
 30
0.0
 40
3.0
  1
9   
 50
90.0
 41
1.428571428571428
 51
15.0
  7
FX_FONT
 72
     5
 11
70.380859
 21
92.95265999999999
 31
0.0
100
AcDbText
  0
TEXT
  5
9E
330
9B
100
AcDbEntity
  8
CSLAYER1
 62
     4
100
AcDbText
 10
68.880859
 20
92.95265999999999
 30
0.0
 40
1.5
  1
  0
 50
90.0
 41
1.607142857142857
 51
15.0
  7
FX_FONT
 72
     5
 11
68.880859
 21
97.45266
 31
0.0
100
AcDbText
  0
TEXT
  5
9F
330
9B
100
AcDbEntity
  8
CSLAYER1
 62
     4
100
AcDbText
 10
70.380859
 20
92.95265999999999
 30
0.0
 40
1.5
  1
-0.15
 50
90.0
 41
1.071428571428559
 51
15.0
  7
FX_FONT
 72
     5
 11
70.380859
 21
100.4526599999999
 31
0.0
100
AcDbText
  0
LINE
  5
A0
330
9B
100
AcDbEntity
  8
CSLAYER1
  6
CONTINUOUS
 62
     4
100
AcDbLine
 10
71.380862
 20
73.379605
 30
0.0
 11
71.380862
 21
91.379605
 31
0.0
  0
LINE
  5
A1
330
9B
100
AcDbEntity
  8
CSLAYER1
  6
CONTINUOUS
 62
     4
100
AcDbLine
 10
71.380862
 20
73.379605
 30
0.0
 11
70.604405
 21
76.277383
 31
0.0
  0
LINE
  5
A2
330
9B
100
AcDbEntity
  8
CSLAYER1
  6
CONTINUOUS
 62
     4
100
AcDbLine
 10
71.380862
 20
73.379605
 30
0.0
 11
72.157319
 21
76.277383
 31
0.0
  0
LINE
  5
A3
330
9B
100
AcDbEntity
  8
CSLAYER1
  6
CONTINUOUS
 62
     4
100
AcDbLine
 10
71.380862
 20
91.379605
 30
0.0
 11
70.604405
 21
88.48182800000001
 31
0.0
  0
LINE
  5
A4
330
9B
100
AcDbEntity
  8
CSLAYER1
  6
CONTINUOUS
 62
     4
100
AcDbLine
 10
71.380862
 20
91.379605
 30
0.0
 11
72.157319
 21
88.48182800000001
 31
0.0
  0
LINE
  5
A5
330
9B
100
AcDbEntity
  8
CSLAYER1
  6
CONTINUOUS
 62
     4
100
AcDbLine
 10
112.470395
 20
73.379605
 30
0.0
 11
70.38086199999998
 21
73.379605
 31
0.0
  0
LINE
  5
A6
330
9B
100
AcDbEntity
  8
CSLAYER1
  6
CONTINUOUS
 62
     4
100
AcDbLine
 10
115.470395
 20
91.379605
 30
0.0
 11
70.38086199999998
 21
91.379605
 31
0.0
  0
ENDBLK
  5
A7
330
9B
100
AcDbEntity
  8
0
100
AcDbBlockEnd
  0
BLOCK
  5
A9
330
A8
100
AcDbEntity
  8
0
100
AcDbBlockBegin
  2
*D11
 70
     1
 10
0.0
 20
0.0
 30
0.0
  3
*D11
  1

  0
TEXT
  5
AA
330
A8
100
AcDbEntity
  8
CSLAYER1
 62
     4
100
AcDbText
 10
90.713488
 20
74.818556
 30
0.0
 40
3.0
  1
30%%d
 50
74.99999562746966
 41
1.285714247433396
 51
15.0
  7
FX_FONT
 72
     5
 11
93.04286000000001
 21
83.511888
 31
0.0
100
AcDbText
  0
ARC
  5
AB
330
A8
100
AcDbEntity
  8
CSLAYER1
  6
CONTINUOUS
 62
     4
100
AcDbCircle
 10
113.470395
 20
73.379605
 30
0.0
 40
21.353916
100
AcDbArc
 50
150.0
 51
180.0
  0
LINE
  5
AC
330
A8
100
AcDbEntity
  8
CSLAYER1
  6
CONTINUOUS
 62
     4
100
AcDbLine
 10
94.977361
 20
84.056563
 30
0.0
 11
94.20090399999999
 21
81.158786
 31
0.0
  0
LINE
  5
AD
330
A8
100
AcDbEntity
  8
CSLAYER1
  6
CONTINUOUS
 62
     4
100
AcDbLine
 10
94.977361
 20
84.056563
 30
0.0
 11
92.856041
 21
81.93524299999998
 31
0.0
  0
LINE
  5
AE
330
A8
100
AcDbEntity
  8
CSLAYER1
  6
CONTINUOUS
 62
     4
100
AcDbLine
 10
92.116479
 20
73.379605
 30
0.0
 11
91.34002200000001
 21
76.277383
 31
0.0
  0
LINE
  5
AF
330
A8
100
AcDbEntity
  8
CSLAYER1
  6
CONTINUOUS
 62
     4
100
AcDbLine
 10
92.116479
 20
73.379605
 30
0.0
 11
92.89293599999998
 21
76.277383
 31
0.0
  0
ENDBLK
  5
B0
330
A8
100
AcDbEntity
  8
0
100
AcDbBlockEnd
  0
BLOCK
  5
B2
330
B1
100
AcDbEntity
  8
0
100
AcDbBlockBegin
  2
*D12
 70
     1
 10
0.0
 20
0.0
 30
0.0
  3
*D12
  1

  0
TEXT
  5
B3
330
B1
100
AcDbEntity
  8
CSLAYER1
 62
     4
100
AcDbText
 10
112.470398
 20
182.911652
 30
0.0
 40
3.0
  1
27
 41
1.2
 51
15.0
  7
FX_FONT
 72
     5
 11
118.470398
 21
182.911652
 31
0.0
100
AcDbText
  0
LINE
  5
B4
330
B1
100
AcDbEntity
  8
CSLAYER1
  6
CONTINUOUS
 62
     4
100
AcDbLine
 10
88.47039499999999
 20
181.911655
 30
0.0
 11
142.470395
 21
181.911655
 31
0.0
  0
LINE
  5
B5
330
B1
100
AcDbEntity
  8
CSLAYER1
  6
CONTINUOUS
 62
     4
100
AcDbLine
 10
88.47039499999999
 20
181.911655
 30
0.0
 11
91.36817200000001
 21
182.688112
 31
0.0
  0
LINE
  5
B6
330
B1
100
AcDbEntity
  8
CSLAYER1
  6
CONTINUOUS
 62
     4
100
AcDbLine
 10
88.47039499999999
 20
181.911655
 30
0.0
 11
91.36817200000001
 21
181.1351979999999
 31
0.0
  0
LINE
  5
B7
330
B1
100
AcDbEntity
  8
CSLAYER1
  6
CONTINUOUS
 62
     4
100
AcDbLine
 10
142.470395
 20
181.911655
 30
0.0
 11
139.5726169999997
 21
182.688112
 31
0.0
  0
LINE
  5
B8
330
B1
100
AcDbEntity
  8
CSLAYER1
  6
CONTINUOUS
 62
     4
100
AcDbLine
 10
142.470395
 20
181.911655
 30
0.0
 11
139.5726169999997
 21
181.1351979999999
 31
0.0
  0
LINE
  5
B9
330
B1
100
AcDbEntity
  8
CSLAYER1
  6
CONTINUOUS
 62
     4
100
AcDbLine
 10
88.47039499999999
 20
143.3796049999999
 30
0.0
 11
88.47039499999999
 21
182.9116549999999
 31
0.0
  0
LINE
  5
BA
330
B1
100
AcDbEntity
  8
CSLAYER1
  6
CONTINUOUS
 62
     4
100
AcDbLine
 10
142.470395
 20
170.979605
 30
0.0
 11
142.470395
 21
182.9116549999999
 31
0.0
  0
ENDBLK
  5
BB
330
B1
100
AcDbEntity
  8
0
100
AcDbBlockEnd
  0
BLOCK
  5
BD
330
BC
100
AcDbEntity
  8
0
100
AcDbBlockBegin
  2
FXDIM0003
 70
     0
 10
0.0
 20
0.0
 30
0.0
  3
FXDIM0003
  1

  0
LINE
  5
BE
330
BC
100
AcDbEntity
  8
CSLAYER1
  6
CONTINUOUS
 62
     4
100
AcDbLine
 10
141.407308
 20
138.4198269999999
 30
0.0
 11
134.698325
 21
113.381562
 31
0.0
  0
LINE
  5
BF
330
BC
100
AcDbEntity
  8
CSLAYER1
  6
CONTINUOUS
 62
     4
100
AcDbLine
 10
141.407308
 20
138.4198269999999
 30
0.0
 11
141.407308
 21
135.4198269999999
 31
0.0
  0
LINE
  5
C0
330
BC
100
AcDbEntity
  8
CSLAYER1
  6
CONTINUOUS
 62
     4
100
AcDbLine
 10
141.407308
 20
138.4198269999999
 30
0.0
 11
139.9073079999999
 21
135.82175
 31
0.0
  0
LINE
  5
C1
330
BC
100
AcDbEntity
  8
CSLAYER1
  6
CONTINUOUS
 62
     4
100
AcDbLine
 10
134.698325
 20
113.381562
 30
0.0
 11
120.6983249999999
 21
113.381562
 31
0.0
  0
TEXT
  5
C2
330
BC
100
AcDbEntity
  8
CSLAYER1
 62
     4
100
AcDbText
 10
121.698334
 20
114.381554
 30
0.0
 40
3.0
  1
%%c4.1
 41
1.142857142857144
 51
15.0
  7
FX_FONT
 72
     5
 11
133.698334
 21
114.381554
 31
0.0
100
AcDbText
  0
ENDBLK
  5
C3
330
BC
100
AcDbEntity
  8
0
100
AcDbBlockEnd
  0
BLOCK
  5
C5
330
C4
100
AcDbEntity
  8
0
100
AcDbBlockBegin
  2
*D14
 70
     1
 10
0.0
 20
0.0
 30
0.0
  3
*D14
  1

  0
TEXT
  5
C6
330
C4
100
AcDbEntity
  8
CSLAYER1
 62
     4
100
AcDbText
 10
60.44140999999999
 20
26.55394699999999
 30
0.0
 40
3.0
  1
4
 50
90.0
 41
1.5
 51
15.0
  7
FX_FONT
 72
     5
 11
60.44140999999999
 21
29.55394699999999
 31
0.0
100
AcDbText
  0
LINE
  5
C7
330
C4
100
AcDbEntity
  8
CSLAYER1
  6
CONTINUOUS
 62
     4
100
AcDbLine
 10
61.441409
 20
24.053947
 30
0.0
 11
61.441409
 21
32.05394699999999
 31
0.0
  0
LINE
  5
C8
330
C4
100
AcDbEntity
  8
CSLAYER1
  6
CONTINUOUS
 62
     4
100
AcDbLine
 10
61.441409
 20
24.053947
 30
0.0
 11
60.664951
 21
26.95172499999999
 31
0.0
  0
LINE
  5
C9
330
C4
100
AcDbEntity
  8
CSLAYER1
  6
CONTINUOUS
 62
     4
100
AcDbLine
 10
61.441409
 20
24.053947
 30
0.0
 11
62.217866
 21
26.95172499999999
 31
0.0
  0
LINE
  5
CA
330
C4
100
AcDbEntity
  8
CSLAYER1
  6
CONTINUOUS
 62
     4
100
AcDbLine
 10
61.441409
 20
32.05394699999999
 30
0.0
 11
60.664951
 21
29.15617
 31
0.0
  0
LINE
  5
CB
330
C4
100
AcDbEntity
  8
CSLAYER1
  6
CONTINUOUS
 62
     4
100
AcDbLine
 10
61.441409
 20
32.05394699999999
 30
0.0
 11
62.217866
 21
29.15617
 31
0.0
  0
LINE
  5
CC
330
C4
100
AcDbEntity
  8
CSLAYER1
  6
CONTINUOUS
 62
     4
100
AcDbLine
 10
73.457562
 20
24.053947
 30
0.0
 11
60.441409
 21
24.053947
 31
0.0
  0
LINE
  5
CD
330
C4
100
AcDbEntity
  8
CSLAYER1
  6
CONTINUOUS
 62
     4
100
AcDbLine
 10
73.457562
 20
32.05394699999999
 30
0.0
 11
60.441409
 21
32.05394699999999
 31
0.0
  0
ENDBLK
  5
CE
330
C4
100
AcDbEntity
  8
0
100
AcDbBlockEnd
  0
BLOCK
  5
176
330
16A
100
AcDbEntity
  8
0
100
AcDbBlockBegin
  2
*D15
 70
     1
 10
0.0
 20
0.0
 30
0.0
  3
*D15
  1

  0
LINE
  5
16B
330
16A
100
AcDbEntity
  8
CSLAYER1
 62
     0
100
AcDbLine
 10
54.89610852767697
 20
162.4308020024844
 30
0.0
 11
58.70975948134899
 21
167.8772599186723
 31
0.0
  0
ARC
  5
16C
330
16A
100
AcDbEntity
  8
CSLAYER1
 62
     0
100
AcDbCircle
 10
40.856109
 20
142.3796049999999
 30
0.0
 40
30.94688937015496
100
AcDbArc
 50
55.33325613759789
 51
71.76469155909789
  0
ARC
  5
16D
330
16A
100
AcDbEntity
  8
CSLAYER1
 62
     0
100
AcDbCircle
 10
40.856109
 20
142.3796049999999
 30
0.0
 40
30.94688937015496
100
AcDbArc
 50
73.2323443996715
 51
89.66674340911211
  0
SOLID
  5
16E
330
16A
100
AcDbEntity
  8
CSLAYER1
 62
     0
100
AcDbTrace
 10
58.47590447623474
 20
167.8572515666334
 30
0.0
 11
58.44163297108368
 21
167.8080025673068
 31
0.0
 12
58.60651572163928
 22
167.729812551517
 32
0.0
 13
58.60651572163928
 23
167.729812551517
 33
0.0
  0
SOLID
  5
16F
330
16A
100
AcDbEntity
  8
CSLAYER1
 62
     0
100
AcDbTrace
 10
41.0360209925591
 20
173.2959710195294
 30
0.0
 11
41.03619548505607
 21
173.3559707657985
 31
0.0
 12
40.85610899999998
 22
173.3264943701549
 32
0.0
 13
40.85610899999998
 23
173.3264943701549
 33
0.0
  0
MTEXT
  5
170
330
16A
100
AcDbEntity
  8
CSLAYER1
 62
     0
100
AcDbMText
 10
50.16201822697357
 20
171.8941779284355
 30
0.0
 40
0.18
 41
0.0
 71
     5
 72
     1
  1
\A1;35°
1001
ACAD
1000
MTEXTBEGIN
1070
    73
1070
     1
1070
    44
1040
1.0
1070
    74
1070
     0
1000
MTEXTEND
1000
MTEXTBEGIN
1070
    73
1070
     1
1070
    44
1040
1.0
1070
    74
1070
     0
1000
MTEXTEND
  0
POINT
  5
171
330
16A
100
AcDbEntity
  8
DEFPOINTS
 62
     0
100
AcDbPoint
 10
53.11354585124391
 20
170.7955372128689
 30
0.0
  0
POINT
  5
172
330
16A
100
AcDbEntity
  8
DEFPOINTS
 62
     0
100
AcDbPoint
 10
40.856109
 20
142.3796049999999
 30
0.0
  0
POINT
  5
173
330
16A
100
AcDbEntity
  8
DEFPOINTS
 62
     0
100
AcDbPoint
 10
40.85610899999998
 20
174.258281
 30
0.0
  0
POINT
  5
174
330
16A
100
AcDbEntity
  8
DEFPOINTS
 62
     0
100
AcDbPoint
 10
40.856109
 20
142.3796049999999
 30
0.0
  0
POINT
  5
175
330
16A
100
AcDbEntity
  8
DEFPOINTS
 62
     0
100
AcDbPoint
 10
54.86025999999998
 20
162.3796049999999
 30
0.0
  0
ENDBLK
  5
177
330
16A
100
AcDbEntity
  8
0
100
AcDbBlockEnd
  0
BLOCK
  5
183
330
178
100
AcDbEntity
  8
0
100
AcDbBlockBegin
  2
*D16
 70
     1
 10
0.0
 20
0.0
 30
0.0
  3
*D16
  1

  0
ARC
  5
179
330
178
100
AcDbEntity
  8
CSLAYER1
 62
     0
100
AcDbCircle
 10
113.4703949999999
 20
73.37960499999998
 30
0.0
 40
21.35391600333299
100
AcDbArc
 50
150.4829681321455
 51
164.4994030276246
  0
ARC
  5
17A
330
178
100
AcDbEntity
  8
CSLAYER1
 62
     0
100
AcDbCircle
 10
113.4703949999999
 20
73.37960499999998
 30
0.0
 40
21.35391600333299
100
AcDbArc
 50
165.4994272635329
 51
179.5170314033128
  0
SOLID
  5
17B
330
178
100
AcDbEntity
  8
CSLAYER1
 62
     0
100
AcDbTrace
 10
94.86197540816204
 20
83.91519100895118
 30
0.0
 11
94.91406291114342
 21
83.88541027636845
 31
0.0
 12
94.97736135740096
 22
84.05656315160397
 32
0.0
 13
94.97736135740096
 23
84.05656315160397
 33
0.0
  0
SOLID
  5
17C
330
178
100
AcDbEntity
  8
CSLAYER1
 62
     0
100
AcDbTrace
 10
92.147237373264
 20
73.55947696076403
 30
0.0
 11
92.08723790617312
 21
73.55972984178122
 31
0.0
 12
92.11647899666694
 22
73.37960499999993
 32
0.0
 13
92.11647899666694
 23
73.37960499999993
 33
0.0
  0
MTEXT
  5
17D
330
178
100
AcDbEntity
  8
CSLAYER1
 62
     0
100
AcDbMText
 10
92.84409606237824
 20
78.90640523279881
 30
0.0
 40
0.18
 41
0.0
 71
     5
 72
     1
  1
\A1;30°
1001
ACAD
1000
MTEXTBEGIN
1070
    73
1070
     1
1070
    44
1040
1.0
1070
    74
1070
     0
1000
MTEXTEND
1000
MTEXTBEGIN
1070
    73
1070
     1
1070
    44
1040
1.0
1070
    74
1070
     0
1000
MTEXTEND
  0
POINT
  5
17E
330
178
100
AcDbEntity
  8
DEFPOINTS
 62
     0
100
AcDbPoint
 10
93.40427774626249
 20
80.68307452048534
 30
0.0
  0
POINT
  5
17F
330
178
100
AcDbEntity
  8
DEFPOINTS
 62
     0
100
AcDbPoint
 10
113.470395
 20
73.379605
 30
0.0
  0
POINT
  5
180
330
178
100
AcDbEntity
  8
DEFPOINTS
 62
     0
100
AcDbPoint
 10
70.38086199999998
 20
73.379605
 30
0.0
  0
POINT
  5
181
330
178
100
AcDbEntity
  8
DEFPOINTS
 62
     0
100
AcDbPoint
 10
112.470395
 20
73.37960499999998
 30
0.0
  0
POINT
  5
182
330
178
100
AcDbEntity
  8
DEFPOINTS
 62
     0
100
AcDbPoint
 10
88.47039499999999
 20
87.813362
 30
0.0
  0
ENDBLK
  5
184
330
178
100
AcDbEntity
  8
0
100
AcDbBlockEnd
  0
ENDSEC
  0
SECTION
  2
ENTITIES
  0
LINE
  5
CF
330
1E
100
AcDbEntity
  8
CSLAYER1
  6
CONTINUOUS
 62
     3
100
AcDbLine
 10
44.23519749999999
 20
43.906681
 30
0.0
 11
44.23519749999999
 21
45.1898025
 31
0.0
  0
LINE
  5
D0
330
1E
100
AcDbEntity
  8
CSLAYER1
  6
CONTINUOUS
 62
     3
100
AcDbLine
 10
44.23519749999999
 20
45.1898025
 30
0.0
 11
56.974241
 21
43.625645
 31
0.0
  0
ARC
  5
D1
330
1E
100
AcDbEntity
  8
CSLAYER1
  6
CONTINUOUS
 62
     3
100
AcDbCircle
 10
57.09610999999995
 20
44.61819099999998
 30
0.0
 40
1.0
100
AcDbArc
 50
263.0
 51
353.0
  0
LINE
  5
D2
330
1E
100
AcDbEntity
  8
CSLAYER1
  6
CONTINUOUS
 62
     3
100
AcDbLine
 10
58.08865649999989
 20
44.4963215
 30
0.0
 11
58.23519749999999
 21
45.6898025
 31
0.0
  0
LINE
  5
D3
330
1E
100
AcDbEntity
  8
CSLAYER1
  6
CONTINUOUS
 62
     3
100
AcDbLine
 10
58.23519749999999
 20
45.6898025
 30
0.0
 11
88.23519749999995
 21
45.6898025
 31
0.0
  0
LINE
  5
D4
330
1E
100
AcDbEntity
  8
CSLAYER1
  6
CONTINUOUS
 62
     3
100
AcDbLine
 10
88.23519749999995
 20
45.6898025
 30
0.0
 11
121.7364749999999
 21
44.7843625
 31
0.0
  0
ARC
  5
D5
330
1E
100
AcDbEntity
  8
CSLAYER1
  6
CONTINUOUS
 62
     3
100
AcDbCircle
 10
121.6393245
 20
41.18980249999999
 30
0.0
 40
3.5958725
100
AcDbArc
 50
271.548158
 51
88.451842
  0
LINE
  5
D6
330
1E
100
AcDbEntity
  8
CSLAYER1
  6
CONTINUOUS
 62
     3
100
AcDbLine
 10
121.7364749999999
 20
37.5952425
 30
0.0
 11
88.23519749999995
 21
36.6898025
 31
0.0
  0
LINE
  5
D7
330
1E
100
AcDbEntity
  8
CSLAYER1
  6
CONTINUOUS
 62
     3
100
AcDbLine
 10
88.23519749999995
 20
36.6898025
 30
0.0
 11
56.7351975
 21
36.6898025
 31
0.0
  0
LINE
  5
D8
330
1E
100
AcDbEntity
  8
CSLAYER1
  6
CONTINUOUS
 62
     3
100
AcDbLine
 10
56.7351975
 20
36.6898025
 30
0.0
 11
44.23519749999999
 21
43.906681
 31
0.0
  0
LINE
  5
D9
330
1E
100
AcDbEntity
  8
CSLAYER1
  6
CONTINUOUS
 62
     3
100
AcDbLine
 10
62.24273599999995
 20
40.43980249999999
 30
0.0
 11
62.24273599999995
 21
36.6898025
 31
0.0
  0
ARC
  5
DA
330
1E
100
AcDbEntity
  8
CSLAYER1
  6
CONTINUOUS
 62
     3
100
AcDbCircle
 10
62.992736
 20
40.43980249999999
 30
0.0
 40
0.75
100
AcDbArc
 50
90.0
 51
180.0
  0
LINE
  5
DB
330
1E
100
AcDbEntity
  8
CSLAYER1
  6
CONTINUOUS
 62
     3
100
AcDbLine
 10
62.992736
 20
41.18980249999999
 30
0.0
 11
79.47471999999994
 21
41.18980249999999
 31
0.0
  0
ARC
  5
DC
330
1E
100
AcDbEntity
  8
CSLAYER1
  6
CONTINUOUS
 62
     3
100
AcDbCircle
 10
79.47471999999994
 20
41.9398025
 30
0.0
 40
0.75
100
AcDbArc
 50
270.0
 51
0.0
  0
LINE
  5
DD
330
1E
100
AcDbEntity
  8
CSLAYER1
  6
CONTINUOUS
 62
     3
100
AcDbLine
 10
80.22471999999995
 20
41.9398025
 30
0.0
 11
80.22471999999995
 21
45.6898025
 31
0.0
  0
LINE
  5
DE
330
1E
100
AcDbEntity
  8
CSLAYER1
  6
CONTINUOUS
 62
     3
100
AcDbLine
 10
74.43675949999991
 20
45.6898025
 30
0.0
 11
74.43675949999991
 21
41.68980249999999
 31
0.0
  0
LINE
  5
DF
330
1E
100
AcDbEntity
  8
CSLAYER1
  6
CONTINUOUS
 62
     3
100
AcDbLine
 10
74.43675949999991
 20
41.68980249999999
 30
0.0
 11
73.93675949999995
 21
41.18980249999999
 31
0.0
  0
LINE
  5
E0
330
1E
100
AcDbEntity
  8
CSLAYER1
  6
CONTINUOUS
 62
     3
100
AcDbLine
 10
68.533635
 20
41.18980249999999
 30
0.0
 11
68.033635
 21
40.6898025
 31
0.0
  0
LINE
  5
E1
330
1E
100
AcDbEntity
  8
CSLAYER1
  6
CONTINUOUS
 62
     3
100
AcDbLine
 10
68.033635
 20
40.6898025
 30
0.0
 11
68.033635
 21
36.6898025
 31
0.0
  0
LINE
  5
E2
330
1E
100
AcDbEntity
  8
CSLAYER1
  6
CONTINUOUS
 62
     3
100
AcDbLine
 10
64.23519749999996
 20
61.18980249999999
 30
0.0
 11
79.23519749999996
 21
61.18980249999999
 31
0.0
  0
LINE
  5
E3
330
1E
100
AcDbEntity
  8
CSLAYER1
  6
CONTINUOUS
 62
     3
100
AcDbLine
 10
79.23519749999996
 20
61.18980249999999
 30
0.0
 11
119.6677959999999
 21
64.0464535
 31
0.0
  0
ARC
  5
E4
330
1E
100
AcDbEntity
  8
CSLAYER1
  6
CONTINUOUS
 62
     3
100
AcDbCircle
 10
119.244937
 20
70.03153449999989
 30
0.0
 40
6.0
100
AcDbArc
 50
274.0413559999999
 51
356.734936
  0
LINE
  5
E5
330
1E
100
AcDbEntity
  8
CSLAYER1
  6
CONTINUOUS
 62
     3
100
AcDbLine
 10
125.2351975
 20
69.68980249999995
 30
0.0
 11
82.4601694999999
 21
69.68980249999995
 31
0.0
  0
ARC
  5
E6
330
1E
100
AcDbEntity
  8
CSLAYER1
  6
CONTINUOUS
 62
     3
100
AcDbCircle
 10
82.4601694999999
 20
70.4398025
 30
0.0
 40
0.75
100
AcDbArc
 50
176.1774459999999
 51
270.0
  0
LINE
  5
E7
330
1E
100
AcDbEntity
  8
CSLAYER1
  6
CONTINUOUS
 62
     3
100
AcDbLine
 10
82.80205649999999
 20
69.68980249999995
 30
0.0
 11
80.22471999999995
 21
61.2597145
 31
0.0
  0
ARC
  5
E8
330
1E
100
AcDbEntity
  8
CSLAYER1
  6
CONTINUOUS
 62
     3
100
AcDbCircle
 10
71.23519749999999
 20
71.18980249999996
 30
0.0
 40
10.5
100
AcDbArc
 50
287.75279
 51
3.822554
  0
ARC
  5
E9
330
1E
100
AcDbEntity
  8
CSLAYER1
  6
CONTINUOUS
 62
     3
100
AcDbCircle
 10
82.4601694999999
 20
71.9398025
 30
0.0
 40
0.75
100
AcDbArc
 50
90.0
 51
183.8225539999998
  0
LINE
  5
EA
330
1E
100
AcDbEntity
  8
CSLAYER1
  6
CONTINUOUS
 62
     3
100
AcDbLine
 10
82.4601694999999
 20
72.6898025
 30
0.0
 11
125.2351975
 21
72.6898025
 31
0.0
  0
ARC
  5
EB
330
1E
100
AcDbEntity
  8
CSLAYER1
  6
CONTINUOUS
 62
     3
100
AcDbCircle
 10
119.244937
 20
72.3480709999999
 30
0.0
 40
6.0
100
AcDbArc
 50
3.265063999999999
 51
85.95864399999998
  0
LINE
  5
EC
330
1E
100
AcDbEntity
  8
CSLAYER1
  6
CONTINUOUS
 62
     3
100
AcDbLine
 10
119.6677959999999
 20
78.33315149999996
 30
0.0
 11
79.23519749999996
 21
81.18980249999996
 31
0.0
  0
LINE
  5
ED
330
1E
100
AcDbEntity
  8
CSLAYER1
  6
CONTINUOUS
 62
     3
100
AcDbLine
 10
79.23519749999996
 20
81.18980249999996
 30
0.0
 11
64.23519749999996
 21
81.18980249999996
 31
0.0
  0
ARC
  5
EE
330
1E
100
AcDbEntity
  8
CSLAYER1
  6
CONTINUOUS
 62
     3
100
AcDbCircle
 10
64.23519749999996
 20
56.18980249999995
 30
0.0
 40
25.0
100
AcDbArc
 50
90.0
 51
143.130102
  0
ARC
  5
EF
330
1E
100
AcDbEntity
  8
CSLAYER1
  6
CONTINUOUS
 62
     3
100
AcDbCircle
 10
64.23519749999996
 20
86.18980249999996
 30
0.0
 40
25.0
100
AcDbArc
 50
216.869898
 51
270.0
  0
LINE
  5
F0
330
1E
100
AcDbEntity
  8
CSLAYER1
  6
CONTINUOUS
 62
     3
100
AcDbLine
 10
58.23519749999999
 20
61.9204805
 30
0.0
 11
58.23519749999999
 21
70.98980249999995
 31
0.0
  0
LINE
  5
F1
330
1E
100
AcDbEntity
  8
CSLAYER1
  6
CONTINUOUS
 62
     3
100
AcDbLine
 10
58.23339899999995
 20
70.98980249999995
 30
0.0
 11
55.36179749999995
 21
64.83163349999995
 31
0.0
  0
ARC
  5
F2
330
1E
100
AcDbEntity
  8
CSLAYER1
  6
CONTINUOUS
 62
     3
100
AcDbCircle
 10
54.45548949999995
 20
65.25425149999989
 30
0.0
 40
1.0
100
AcDbArc
 50
235.0
 51
335.0
  0
LINE
  5
F3
330
1E
100
AcDbEntity
  8
CSLAYER1
  6
CONTINUOUS
 62
     3
100
AcDbLine
 10
53.88191299999999
 20
64.43509949999989
 30
0.0
 11
44.23519749999999
 21
71.18980249999996
 31
0.0
  0
LINE
  5
F4
330
1E
100
AcDbEntity
  8
CSLAYER1
  6
CONTINUOUS
 62
     3
100
AcDbLine
 10
55.25659599999995
 20
70.98980249999995
 30
0.0
 11
54.89131750000001
 21
64.35422149999995
 31
0.0
  0
ARC
  5
F5
330
1E
100
AcDbEntity
  8
CSLAYER1
  6
CONTINUOUS
 62
     3
100
AcDbCircle
 10
71.23519749999999
 20
71.18980249999996
 30
0.0
 40
10.5
100
AcDbArc
 50
107.7527899999999
 51
169.809411
  0
LINE
  5
F6
330
1E
100
AcDbEntity
  8
CSLAYER1
  6
CONTINUOUS
 62
     3
100
AcDbLine
 10
62.24273599999995
 20
81.110278
 30
0.0
 11
59.232724
 21
71.26497299999996
 31
0.0
  0
LINE
  5
F7
330
1E
100
AcDbEntity
  8
CSLAYER1
  6
CONTINUOUS
 62
     3
100
AcDbLine
 10
58.23519749999999
 20
71.38980249999995
 30
0.0
 11
58.23519749999999
 21
80.459125
 31
0.0
  0
CIRCLE
  5
F8
330
1E
100
AcDbEntity
  8
CSLAYER1
  6
CONTINUOUS
 62
     3
100
AcDbCircle
 10
71.23519749999999
 20
71.18980249999996
 30
0.0
 40
2.049999999999998
  0
CIRCLE
  5
F9
330
1E
100
AcDbEntity
  8
CSLAYER1
  6
CONTINUOUS
 62
     3
100
AcDbCircle
 10
71.23519749999999
 20
71.18980249999996
 30
0.0
 40
6.4
  0
LINE
  5
FA
330
1E
100
AcDbEntity
  8
CSLAYER1
  6
CONTINUOUS
 62
     3
100
AcDbLine
 10
115.7351975
 20
69.68980249999995
 30
0.0
 11
115.7351975
 21
72.6898025
 31
0.0
  0
LINE
  5
FB
330
1E
100
AcDbEntity
  8
CSLAYER1
  6
CONTINUOUS
 62
     3
100
AcDbLine
 10
120.7351975
 20
72.6898025
 30
0.0
 11
120.7351975
 21
69.68980249999995
 31
0.0
  0
LINE
  5
FC
330
1E
100
AcDbEntity
  8
CSLAYER1
  6
CONTINUOUS
 62
     3
100
AcDbLine
 10
119.0
 20
25.0
 30
0.0
 11
139.5
 21
25.0
 31
0.0
  0
LINE
  5
FD
330
1E
100
AcDbEntity
  8
CSLAYER1
  6
CONTINUOUS
 62
     3
100
AcDbLine
 10
139.5
 20
20.0
 30
0.0
 11
119.0
 21
20.0
 31
0.0
  0
LINE
  5
FE
330
1E
100
AcDbEntity
  8
CSLAYER1
  6
CONTINUOUS
 62
     3
100
AcDbLine
 10
27.43012999999999
 20
61.18980249999999
 30
0.0
 11
20.4280545
 21
71.18980249999996
 31
0.0
  0
LINE
  5
FF
330
1E
100
AcDbEntity
  8
CSLAYER1
  6
CONTINUOUS
 62
     3
100
AcDbLine
 10
20.4280545
 20
71.18980249999996
 30
0.0
 11
27.43012999999999
 21
81.18980249999996
 31
0.0
  0
LINE
  5
100
330
1E
100
AcDbEntity
  8
CSLAYER1
  6
CONTINUOUS
 62
     3
100
AcDbLine
 10
27.43012999999999
 20
81.18980249999996
 30
0.0
 11
21.55323249999999
 21
81.18980249999996
 31
0.0
  0
ARC
  5
101
330
1E
100
AcDbEntity
  8
CSLAYER1
  6
CONTINUOUS
 62
     3
100
AcDbCircle
 10
65.42805449999995
 20
71.18980249999996
 30
0.0
 40
45.0
100
AcDbArc
 50
167.160412
 51
192.839588
  0
LINE
  5
102
330
1E
100
AcDbEntity
  8
CSLAYER1
  6
CONTINUOUS
 62
     3
100
AcDbLine
 10
21.55323249999999
 20
61.18980249999999
 30
0.0
 11
27.43012999999999
 21
61.18980249999999
 31
0.0
  0
POINT
  5
103
330
1E
100
AcDbEntity
  8
CSLAYER1
 62
     3
100
AcDbPoint
 10
135.4999999999999
 20
26.75
 30
0.0
  0
POINT
  5
104
330
1E
100
AcDbEntity
  8
CSLAYER1
 62
     3
100
AcDbPoint
 10
125.2499999999999
 20
26.75
 30
0.0
  0
POINT
  5
105
330
1E
100
AcDbEntity
  8
CSLAYER1
 62
     3
100
AcDbPoint
 10
125.2499999999999
 20
21.75
 30
0.0
  0
POINT
  5
106
330
1E
100
AcDbEntity
  8
CSLAYER1
 62
     3
100
AcDbPoint
 10
135.4999999999999
 20
21.75
 30
0.0
  0
TEXT
  5
107
330
1E
100
AcDbEntity
  8
CSLAYER1
 62
     3
100
AcDbText
 10
119.0499999999999
 20
25.5
 30
0.0
 40
2.5
  1
刃開キハ
 41
1.110447761194031
  7
FX_FONT
 72
     5
 11
131.45
 21
25.5
 31
0.0
100
AcDbText
  0
TEXT
  5
108
330
1E
100
AcDbEntity
  8
CSLAYER1
 62
     3
100
AcDbText
 10
119.0
 20
20.5
 30
0.0
 40
2.5
  1
切刃部有効
 41
0.872093023255814
  7
FX_FONT
 72
     5
 11
131.4999999999999
 21
20.5
 31
0.0
100
AcDbText
  0
TEXT
  5
109
330
1E
100
AcDbEntity
  8
CSLAYER1
 62
     3
100
AcDbText
 10
134.25
 20
25.5
 30
0.0
 40
2.5
  1
4
 41
1.499999999999982
  7
FX_FONT
 72
     5
 11
136.7499999999999
 21
25.5
 31
0.0
100
AcDbText
  0
TEXT
  5
10A
330
1E
100
AcDbEntity
  8
CSLAYER1
 62
     3
100
AcDbText
 10
132.1670275
 20
20.505035
 30
0.0
 40
2.489929999999999
  1
11.5
 41
0.7301349837144043
  7
FX_FONT
 72
     5
 11
138.8329725
 21
20.505035
 31
0.0
100
AcDbText
  0
TEXT
  5
10B
330
1E
100
AcDbEntity
  8
CSLAYER1
 62
     3
100
AcDbText
 10
122.7
 20
8.625
 30
0.0
 40
1.75
  1
N7AP
 41
1.184415584415585
  7
FX_FONT
 72
     5
 11
130.3
 21
8.625
 31
0.0
100
AcDbText
  0
POINT
  5
10C
330
1E
100
AcDbEntity
  8
CSLAYER1
 62
     3
100
AcDbPoint
 10
126.5
 20
9.5
 30
0.0
  0
ARC
  5
10D
330
1E
100
AcDbEntity
  8
CSLAYER1
  6
DASHED
 62
     4
100
AcDbCircle
 10
54.735729
 20
38.998897
 30
0.0
 40
1.0
100
AcDbArc
 50
239.9999999999999
 51
340.0
  0
LINE
  5
10E
330
1E
100
AcDbEntity
  8
CSLAYER1
  6
DASHED
 62
     4
100
AcDbLine
 10
55.67542149999995
 20
38.6568765
 30
0.0
 11
57.51459649999995
 21
43.70996799999999
 31
0.0
  0
LINE
  5
10F
330
1E
100
AcDbEntity
  8
CSLAYER1
  6
CENTER
 62
     4
100
AcDbLine
 10
58.60519749999995
 20
41.18980249999999
 30
0.0
 11
62.24273599999995
 21
41.18980249999999
 31
0.0
  0
LINE
  5
110
330
1E
100
AcDbEntity
  8
CSLAYER1
  6
CENTER
 62
     4
100
AcDbLine
 10
71.23519749999999
 20
33.465231
 30
0.0
 11
71.23519749999999
 21
49.51437399999999
 31
0.0
  0
LINE
  5
111
330
1E
100
AcDbEntity
  8
CSLAYER1
  6
CENTER
 62
     4
100
AcDbLine
 10
71.23519749999999
 20
56.78980249999995
 30
0.0
 11
71.23519749999999
 21
84.98980249999995
 31
0.0
  0
LINE
  5
112
330
1E
100
AcDbEntity
  8
CSLAYER1
  6
CENTER
 62
     4
100
AcDbLine
 10
118.2351975
 20
74.88408849999991
 30
0.0
 11
118.2351975
 21
67.725231
 31
0.0
  0
LINE
  5
113
330
1E
100
AcDbEntity
  8
CSLAYER1
  6
CENTER
 62
     4
100
AcDbLine
 10
118.3351975
 20
41.18980249999999
 30
0.0
 11
131.2351975
 21
41.18980249999999
 31
0.0
  0
LINE
  5
114
330
1E
100
AcDbEntity
  8
CSLAYER1
  6
CENTER
 62
     4
100
AcDbLine
 10
84.33662599999996
 20
41.18980249999999
 30
0.0
 11
80.22471999999995
 21
41.18980249999999
 31
0.0
  0
LINE
  5
115
330
1E
100
AcDbEntity
  8
CSLAYER1
  6
CENTER
 62
     4
100
AcDbLine
 10
87.23519749999995
 20
66.2981115
 30
0.0
 11
87.23519749999995
 21
75.94603349999996
 31
0.0
  0
LINE
  5
116
330
1E
100
AcDbEntity
  8
CSLAYER1
  6
CENTER
 62
     4
100
AcDbLine
 10
28.989743
 20
71.18980249999996
 30
0.0
 11
18.854279
 21
71.18980249999996
 31
0.0
  0
INSERT
  5
118
330
1E
100
AcDbEntity
  8
CSLAYER1
100
AcDbBlockReference
  2
FXDIM0000
 10
0.0
 20
0.0
 30
0.0
 41
0.5
 42
0.5
 43
0.5
  0
INSERT
  5
119
330
1E
100
AcDbEntity
  8
CSLAYER1
100
AcDbBlockReference
  2
FXDIM0001
 10
0.0
 20
0.0
 30
0.0
 41
0.5
 42
0.5
 43
0.5
  0
INSERT
  5
11A
330
1E
100
AcDbEntity
  8
CSLAYER1
100
AcDbBlockReference
  2
FXDIM0002
 10
0.0
 20
0.0
 30
0.0
 41
0.5
 42
0.5
 43
0.5
  0
LINE
  5
11F
330
1E
100
AcDbEntity
  8
CSLAYER1
  6
CONTINUOUS
 62
     3
100
AcDbLine
 10
54.1944895
 20
71.38980249999995
 30
0.0
 11
54.1944895
 21
70.98980249999995
 31
0.0
  0
LINE
  5
127
330
1E
100
AcDbEntity
  8
CSLAYER1
  6
CONTINUOUS
 62
     3
100
AcDbLine
 10
12.138581
 20
16.02697349999999
 30
0.0
 11
19.14065599999999
 21
26.02697349999999
 31
0.0
  0
LINE
  5
128
330
1E
100
AcDbEntity
  8
CSLAYER1
  6
CONTINUOUS
 62
     3
100
AcDbLine
 10
19.14065599999999
 20
26.02697349999999
 30
0.0
 11
13.263759
 21
26.02697349999999
 31
0.0
  0
ARC
  5
129
330
1E
100
AcDbEntity
  8
CSLAYER1
  6
CONTINUOUS
 62
     3
100
AcDbCircle
 10
57.13858099999995
 20
16.02697349999999
 30
0.0
 40
45.0
100
AcDbArc
 50
167.160412
 51
180.0
  0
LINE
  5
12A
330
1E
100
AcDbEntity
  8
CSLAYER1
  6
CENTER
 62
     4
100
AcDbLine
 10
20.70026899999999
 20
14.02697349999999
 30
0.0
 11
10.56480499999999
 21
14.02697349999999
 31
0.0
  0
LINE
  5
12B
330
1E
100
AcDbEntity
  8
CSLAYER1
  6
CONTINUOUS
 62
     3
100
AcDbLine
 10
58.23339899999995
 20
71.38980249999995
 30
0.0
 11
55.36179749999995
 21
77.54797199999996
 31
0.0
  0
ARC
  5
12C
330
1E
100
AcDbEntity
  8
CSLAYER1
  6
CONTINUOUS
 62
     3
100
AcDbCircle
 10
54.45548949999995
 20
77.1253535
 30
0.0
 40
1.0
100
AcDbArc
 50
25.0
 51
125.0
  0
LINE
  5
12D
330
1E
100
AcDbEntity
  8
CSLAYER1
  6
CONTINUOUS
 62
     3
100
AcDbLine
 10
53.88191299999999
 20
77.9445055
 30
0.0
 11
44.23519749999999
 21
71.18980249999996
 31
0.0
  0
LINE
  5
12E
330
1E
100
AcDbEntity
  8
CSLAYER1
  6
CONTINUOUS
 62
     3
100
AcDbLine
 10
55.25659599999995
 20
71.38980249999995
 30
0.0
 11
54.89131750000001
 21
78.0253834999999
 31
0.0
  0
LINE
  5
12F
330
1E
100
AcDbEntity
  8
CSLAYER1
  6
CENTER
 62
     4
100
AcDbLine
 10
127.1577485
 20
71.18980249999996
 30
0.0
 11
54.1944895
 21
71.18980249999996
 31
0.0
  0
LINE
  5
130
330
1E
100
AcDbEntity
  8
CSLAYER1
  6
CONTINUOUS
 62
     3
100
AcDbLine
 10
54.1944895
 20
71.18980249999996
 30
0.0
 11
44.23519749999999
 21
71.18980249999996
 31
0.0
  0
LINE
  5
131
330
1E
100
AcDbEntity
  8
CSLAYER1
  6
CENTER
 62
     4
100
AcDbLine
 10
44.23519749999999
 20
71.18980249999996
 30
0.0
 11
41.8323875
 21
71.18980249999996
 31
0.0
  0
LINE
  5
132
330
1E
100
AcDbEntity
  8
CSLAYER1
  6
CONTINUOUS
 62
     3
100
AcDbLine
 10
58.44027649999995
 20
70.98980249999995
 30
0.0
 11
54.1944895
 21
70.98980249999995
 31
0.0
  0
ARC
  5
133
330
1E
100
AcDbEntity
  8
CSLAYER1
  6
CONTINUOUS
 62
     3
100
AcDbCircle
 10
58.44027649999995
 20
73.4898025
 30
0.0
 40
2.5
100
AcDbArc
 50
270.0
 51
349.809411
  0
LINE
  5
134
330
1E
100
AcDbEntity
  8
CSLAYER1
  6
CONTINUOUS
 62
     3
100
AcDbLine
 10
58.44027649999995
 20
71.38980249999995
 30
0.0
 11
54.1944895
 21
71.38980249999995
 31
0.0
  0
ARC
  5
135
330
1E
100
AcDbEntity
  8
CSLAYER1
  6
CONTINUOUS
 62
     3
100
AcDbCircle
 10
58.44027649999995
 20
68.8898025
 30
0.0
 40
2.5
100
AcDbArc
 50
66.92608199999999
 51
90.0
  0
LINE
  5
136
330
1E
100
AcDbEntity
  8
CSLAYER1
  6
CONTINUOUS
 62
     3
100
AcDbLine
 10
64.1546055
 20
24.054522
 30
0.0
 11
57.914577
 21
24.5180195
 31
0.0
  0
ARC
  5
137
330
1E
100
AcDbEntity
  8
CSLAYER1
  6
CONTINUOUS
 62
     3
100
AcDbCircle
 10
56.062725
 20
-0.413299
 30
0.0
 40
25.0
100
AcDbArc
 50
85.751977
 51
138.8820799999999
  0
ARC
  5
138
330
1E
100
AcDbEntity
  8
CSLAYER1
  6
CONTINUOUS
 62
     3
100
AcDbCircle
 10
64.1546055
 20
14.02697349999999
 30
0.0
 40
10.5
100
AcDbArc
 50
112.000813
 51
174.057434
  0
LINE
  5
139
330
1E
100
AcDbEntity
  8
CSLAYER1
  6
CONTINUOUS
 62
     3
100
AcDbLine
 10
55.92169849999995
 20
24.58630349999999
 30
0.0
 11
52.190674
 21
14.9910095
 31
0.0
  0
LINE
  5
13A
330
1E
100
AcDbEntity
  8
CSLAYER1
  6
CONTINUOUS
 62
     3
100
AcDbLine
 10
51.2051345
 20
15.189387
 30
0.0
 11
51.876936
 21
24.2337935
 31
0.0
  0
CIRCLE
  5
13B
330
1E
100
AcDbEntity
  8
CSLAYER1
  6
CONTINUOUS
 62
     3
100
AcDbCircle
 10
64.1546055
 20
14.02697349999999
 30
0.0
 40
2.049999999999998
  0
CIRCLE
  5
13C
330
1E
100
AcDbEntity
  8
CSLAYER1
  6
CONTINUOUS
 62
     3
100
AcDbCircle
 10
64.1546055
 20
14.02697349999999
 30
0.0
 40
6.4
  0
LINE
  5
13D
330
1E
100
AcDbEntity
  8
CSLAYER1
  6
CENTER
 62
     4
100
AcDbLine
 10
64.1546055
 20
2.171329499999999
 30
0.0
 11
64.1546055
 21
26.366869
 31
0.0
  0
LINE
  5
13E
330
1E
100
AcDbEntity
  8
CSLAYER1
  6
CONTINUOUS
 62
     3
100
AcDbLine
 10
47.1755275
 20
15.48869899999999
 30
0.0
 11
47.1607125
 21
15.2892485
 31
0.0
  0
LINE
  5
13F
330
1E
100
AcDbEntity
  8
CSLAYER1
  6
CONTINUOUS
 62
     3
100
AcDbLine
 10
51.20334099999995
 20
15.18952049999999
 30
0.0
 11
48.795789
 21
21.543483
 31
0.0
  0
ARC
  5
140
330
1E
100
AcDbEntity
  8
CSLAYER1
  6
CONTINUOUS
 62
     3
100
AcDbCircle
 10
47.860666
 20
21.18915949999998
 30
0.0
 40
1.0
100
AcDbArc
 50
20.75197699999999
 51
120.7519769999999
  0
LINE
  5
141
330
1E
100
AcDbEntity
  8
CSLAYER1
  6
CONTINUOUS
 62
     3
100
AcDbLine
 10
47.3493435
 20
22.04854849999999
 30
0.0
 11
37.22878099999999
 21
16.02697349999999
 31
0.0
  0
LINE
  5
142
330
1E
100
AcDbEntity
  8
CSLAYER1
  6
CONTINUOUS
 62
     3
100
AcDbLine
 10
48.234716
 20
15.41002449999999
 30
0.0
 11
48.3619655
 21
22.05443349999999
 31
0.0
  0
LINE
  5
143
330
1E
100
AcDbEntity
  8
CSLAYER1
  6
CENTER
 62
     4
100
AcDbLine
 10
73.10023699999995
 20
14.02697349999999
 30
0.0
 11
34.4359145
 21
14.02697349999999
 31
0.0
  0
LINE
  5
144
330
1E
100
AcDbEntity
  8
CSLAYER1
  6
CONTINUOUS
 62
     3
100
AcDbLine
 10
47.1607125
 20
15.2892485
 30
0.0
 11
37.22878099999999
 21
16.02697349999999
 31
0.0
  0
LINE
  5
145
330
1E
100
AcDbEntity
  8
CSLAYER1
  6
CONTINUOUS
 62
     3
100
AcDbLine
 10
51.40964999999995
 20
15.17419599999999
 30
0.0
 11
47.1755275
 21
15.48869899999999
 31
0.0
  0
ARC
  5
146
330
1E
100
AcDbEntity
  8
CSLAYER1
  6
CONTINUOUS
 62
     3
100
AcDbCircle
 10
51.224465
 20
12.6810645
 30
0.0
 40
2.5
100
AcDbArc
 50
32.572322
 51
85.751977
  0
LINE
  5
147
330
1E
100
AcDbEntity
  8
CSLAYER1
  6
CONTINUOUS
 62
     3
100
AcDbLine
 10
71.4786665
 20
4.543442999999999
 30
0.0
 11
57.914577
 21
3.5359275
 31
0.0
  0
ARC
  5
148
330
1E
100
AcDbEntity
  8
CSLAYER1
  6
CONTINUOUS
 62
     3
100
AcDbCircle
 10
56.062725
 20
28.4672465
 30
0.0
 40
25.0
100
AcDbArc
 50
221.11792
 51
274.2480229999999
  0
LINE
  5
149
330
1E
100
AcDbEntity
  8
CSLAYER1
  6
CONTINUOUS
 62
     3
100
AcDbLine
 10
51.2051345
 20
12.86456
 30
0.0
 11
51.876936
 21
3.8201535
 31
0.0
  0
LINE
  5
14A
330
1E
100
AcDbEntity
  8
CSLAYER1
  6
CONTINUOUS
 62
     3
100
AcDbLine
 10
47.1755275
 20
12.5652485
 30
0.0
 11
47.1607125
 21
12.764699
 31
0.0
  0
LINE
  5
14B
330
1E
100
AcDbEntity
  8
CSLAYER1
  6
CONTINUOUS
 62
     3
100
AcDbLine
 10
51.20334099999995
 20
12.864427
 30
0.0
 11
48.795789
 21
6.51046449999999
 31
0.0
  0
ARC
  5
14C
330
1E
100
AcDbEntity
  8
CSLAYER1
  6
CONTINUOUS
 62
     3
100
AcDbCircle
 10
47.860666
 20
6.864788
 30
0.0
 40
1.0
100
AcDbArc
 50
239.2480229999999
 51
339.2480229999998
  0
LINE
  5
14D
330
1E
100
AcDbEntity
  8
CSLAYER1
  6
CONTINUOUS
 62
     3
100
AcDbLine
 10
47.3493435
 20
6.005398999999999
 30
0.0
 11
37.22878099999999
 21
12.0269735
 31
0.0
  0
LINE
  5
14E
330
1E
100
AcDbEntity
  8
CSLAYER1
  6
CONTINUOUS
 62
     3
100
AcDbLine
 10
48.234716
 20
12.64392299999999
 30
0.0
 11
48.3619655
 21
5.999513999999999
 31
0.0
  0
LINE
  5
14F
330
1E
100
AcDbEntity
  8
CSLAYER1
  6
CONTINUOUS
 62
     3
100
AcDbLine
 10
47.1607125
 20
12.764699
 30
0.0
 11
37.22878099999999
 21
12.0269735
 31
0.0
  0
LINE
  5
150
330
1E
100
AcDbEntity
  8
CSLAYER1
  6
CONTINUOUS
 62
     3
100
AcDbLine
 10
51.40964999999995
 20
12.87975099999999
 30
0.0
 11
47.1755275
 21
12.5652485
 31
0.0
  0
ARC
  5
151
330
1E
100
AcDbEntity
  8
CSLAYER1
  6
CONTINUOUS
 62
     3
100
AcDbCircle
 10
51.224465
 20
15.37288299999999
 30
0.0
 40
2.5
100
AcDbArc
 50
274.2480229999999
 51
354.057434
  0
LINE
  5
152
330
1E
100
AcDbEntity
  8
CSLAYER1
  6
CONTINUOUS
 62
     3
100
AcDbLine
 10
68.98870050000001
 20
24.4135895
 30
0.0
 11
60.22109799999995
 21
23.76234849999999
 31
0.0
  0
LINE
  5
153
330
1E
100
AcDbEntity
  8
CSLAYER1
  6
CONTINUOUS
 62
     3
100
AcDbLine
 10
12.138581
 20
12.0269735
 30
0.0
 11
19.14065599999999
 21
2.026973499999999
 31
0.0
  0
LINE
  5
154
330
1E
100
AcDbEntity
  8
CSLAYER1
  6
CONTINUOUS
 62
     3
100
AcDbLine
 10
19.14065599999999
 20
2.026973499999999
 30
0.0
 11
13.263759
 21
2.026973499999999
 31
0.0
  0
ARC
  5
155
330
1E
100
AcDbEntity
  8
CSLAYER1
  6
CONTINUOUS
 62
     3
100
AcDbCircle
 10
57.13858099999995
 20
12.0269735
 30
0.0
 40
45.0
100
AcDbArc
 50
180.0
 51
192.839588
  0
LINE
  5
157
330
1E
100
AcDbEntity
  8
CSLAYER1
  6
DOT
 62
     3
100
AcDbLine
 10
2.5
 20
0.5
 30
0.0
 11
142.0
 21
0.5
 31
0.0
  0
LINE
  5
158
330
1E
100
AcDbEntity
  8
CSLAYER1
  6
DOT
 62
     3
100
AcDbLine
 10
142.0
 20
0.5
 30
0.0
 11
142.0
 21
97.5
 31
0.0
  0
LINE
  5
159
330
1E
100
AcDbEntity
  8
CSLAYER1
  6
DOT
 62
     3
100
AcDbLine
 10
142.0
 20
97.5
 30
0.0
 11
2.5
 21
97.5
 31
0.0
  0
LINE
  5
15A
330
1E
100
AcDbEntity
  8
CSLAYER1
  6
DOT
 62
     3
100
AcDbLine
 10
2.5
 20
97.5
 30
0.0
 11
2.5
 21
0.5
 31
0.0
  0
LINE
  5
15B
330
1E
100
AcDbEntity
  8
CSLAYER1
  6
DOT
 62
     3
100
AcDbLine
 10
139.0
 20
47.2
 30
0.0
 11
141.0
 21
47.2
 31
0.0
  0
LINE
  5
15C
330
1E
100
AcDbEntity
  8
CSLAYER1
  6
DOT
 62
     3
100
AcDbLine
 10
2.5
 20
49.0
 30
0.0
 11
0.5
 21
49.0
 31
0.0
  0
LINE
  5
15D
330
1E
100
AcDbEntity
  8
CSLAYER1
  6
DOT
 62
     3
100
AcDbLine
 10
72.25
 20
97.5
 30
0.0
 11
72.25
 21
99.50000000000001
 31
0.0
  0
TEXT
  5
19E
330
1E
100
AcDbEntity
  8
CSLAYER1
 62
     4
100
AcDbText
 10
56.235199
 20
91.455826
 30
0.0
 40
1.5
  1
27
 41
1.2
 51
15.0
  7
FX_FONT
 72
     5
 11
59.235199
 21
91.455826
 31
0.0
100
AcDbText
  0
LINE
  5
19F
330
1E
100
AcDbEntity
  8
CSLAYER1
 62
     4
100
AcDbLine
 10
44.23519749999999
 20
90.9558275
 30
0.0
 11
71.23519749999999
 21
90.9558275
 31
0.0
  0
LINE
  5
1A0
330
1E
100
AcDbEntity
  8
CSLAYER1
 62
     4
100
AcDbLine
 10
44.23519749999999
 20
90.9558275
 30
0.0
 11
45.684086
 21
91.344056
 31
0.0
  0
LINE
  5
1A1
330
1E
100
AcDbEntity
  8
CSLAYER1
 62
     4
100
AcDbLine
 10
44.23519749999999
 20
90.9558275
 30
0.0
 11
45.684086
 21
90.56759899999995
 31
0.0
  0
LINE
  5
1A2
330
1E
100
AcDbEntity
  8
CSLAYER1
 62
     4
100
AcDbLine
 10
71.23519749999999
 20
90.9558275
 30
0.0
 11
69.78630849999989
 21
91.344056
 31
0.0
  0
LINE
  5
1A3
330
1E
100
AcDbEntity
  8
CSLAYER1
 62
     4
100
AcDbLine
 10
71.23519749999999
 20
90.9558275
 30
0.0
 11
69.78630849999989
 21
90.56759899999995
 31
0.0
  0
LINE
  5
1A4
330
1E
100
AcDbEntity
  8
CSLAYER1
 62
     4
100
AcDbLine
 10
44.23519749999999
 20
71.68980249999996
 30
0.0
 11
44.23519749999999
 21
91.45582749999995
 31
0.0
  0
LINE
  5
1A5
330
1E
100
AcDbEntity
  8
CSLAYER1
 62
     4
100
AcDbLine
 10
71.23519749999999
 20
85.48980249999999
 30
0.0
 11
71.23519749999999
 21
91.45582749999995
 31
0.0
  0
TEXT
  5
1A6
330
1E
100
AcDbEntity
  8
CSLAYER1
 62
     4
100
AcDbText
 10
37.662735
 20
67.43980400000001
 30
0.0
 40
1.5
  1
20~21
 50
90.0
 41
1.111111111111111
 51
15.0
  7
FX_FONT
 72
     5
 11
37.662735
 21
74.93980400000001
 31
0.0
100
AcDbText
  0
LINE
  5
1A7
330
1E
100
AcDbEntity
  8
CSLAYER1
 62
     4
100
AcDbLine
 10
38.1627345
 20
61.18980249999999
 30
0.0
 11
38.1627345
 21
81.18980249999996
 31
0.0
  0
LINE
  5
1A8
330
1E
100
AcDbEntity
  8
CSLAYER1
 62
     4
100
AcDbLine
 10
38.1627345
 20
61.18980249999999
 30
0.0
 11
37.774506
 21
62.63869149999995
 31
0.0
  0
LINE
  5
1A9
330
1E
100
AcDbEntity
  8
CSLAYER1
 62
     4
100
AcDbLine
 10
38.1627345
 20
61.18980249999999
 30
0.0
 11
38.5509635
 21
62.63869149999995
 31
0.0
  0
LINE
  5
1AA
330
1E
100
AcDbEntity
  8
CSLAYER1
 62
     4
100
AcDbLine
 10
38.1627345
 20
81.18980249999996
 30
0.0
 11
37.774506
 21
79.740914
 31
0.0
  0
LINE
  5
1AB
330
1E
100
AcDbEntity
  8
CSLAYER1
 62
     4
100
AcDbLine
 10
38.1627345
 20
81.18980249999996
 30
0.0
 11
38.5509635
 21
79.740914
 31
0.0
  0
LINE
  5
1AC
330
1E
100
AcDbEntity
  8
CSLAYER1
 62
     4
100
AcDbLine
 10
63.73519749999996
 20
61.18980249999999
 30
0.0
 11
37.66273449999999
 21
61.18980249999999
 31
0.0
  0
LINE
  5
1AD
330
1E
100
AcDbEntity
  8
CSLAYER1
 62
     4
100
AcDbLine
 10
63.73519749999996
 20
81.18980249999996
 30
0.0
 11
37.66273449999999
 21
81.18980249999996
 31
0.0
  0
TEXT
  5
1AE
330
1E
100
AcDbEntity
  8
CSLAYER1
 62
     4
100
AcDbText
 10
25.5449635
 20
66.138574
 30
0.0
 40
1.5
  1
R45
 50
7.930756595011952
 41
1.124999891724695
 51
15.0
  7
FX_FONT
 72
     5
 11
30.001923
 21
66.759467
 31
0.0
100
AcDbText
  0
LINE
  5
1AF
330
1E
100
AcDbEntity
  8
CSLAYER1
 62
     4
100
AcDbLine
 10
20.858455
 20
64.980873
 30
0.0
 11
34.82640949999999
 21
66.92672950000001
 31
0.0
  0
LINE
  5
1B0
330
1E
100
AcDbEntity
  8
CSLAYER1
 62
     4
100
AcDbLine
 10
20.858455
 20
64.980873
 30
0.0
 11
22.23991949999999
 21
65.5653005
 31
0.0
  0
LINE
  5
1B1
330
1E
100
AcDbEntity
  8
CSLAYER1
 62
     4
100
AcDbLine
 10
20.858455
 20
64.980873
 30
0.0
 11
22.3470525
 21
64.79626949999989
 31
0.0
  0
TEXT
  5
1B2
330
1E
100
AcDbEntity
  8
CSLAYER1
 62
     4
100
AcDbText
 10
51.569971
 20
66.43070799999989
 30
0.0
 40
1.5
  1
R25
 50
58.56157513345238
 41
1.124999889085207
 51
15.0
  7
FX_FONT
 72
     5
 11
53.9170895
 21
70.27011299999995
 31
0.0
100
AcDbText
  0
LINE
  5
1B3
330
1E
100
AcDbEntity
  8
CSLAYER1
 62
     4
100
AcDbLine
 10
51.19564849999999
 20
64.859773
 30
0.0
 11
58.18660199999995
 21
76.2955405
 31
0.0
  0
LINE
  5
1B4
330
1E
100
AcDbEntity
  8
CSLAYER1
 62
     4
100
AcDbLine
 10
51.19564849999999
 20
64.859773
 30
0.0
 11
51.6201255
 21
66.29845949999995
 31
0.0
  0
LINE
  5
1B5
330
1E
100
AcDbEntity
  8
CSLAYER1
 62
     4
100
AcDbLine
 10
51.19564849999999
 20
64.859773
 30
0.0
 11
52.2826
 21
65.89347349999996
 31
0.0
  0
LINE
  5
1B6
330
1E
100
AcDbEntity
  8
CSLAYER1
  6
CONTINUOUS
 62
     4
100
AcDbLine
 10
70.703654
 20
69.20991349999995
 30
0.0
 11
67.34916250000001
 21
56.69078100000001
 31
0.0
  0
LINE
  5
1B7
330
1E
100
AcDbEntity
  8
CSLAYER1
  6
CONTINUOUS
 62
     4
100
AcDbLine
 10
70.703654
 20
69.20991349999995
 30
0.0
 11
70.703654
 21
67.70991349999995
 31
0.0
  0
LINE
  5
1B8
330
1E
100
AcDbEntity
  8
CSLAYER1
  6
CONTINUOUS
 62
     4
100
AcDbLine
 10
70.703654
 20
69.20991349999995
 30
0.0
 11
69.95365399999996
 21
67.910875
 31
0.0
  0
LINE
  5
1B9
330
1E
100
AcDbEntity
  8
CSLAYER1
  6
CONTINUOUS
 62
     4
100
AcDbLine
 10
67.34916250000001
 20
56.69078100000001
 30
0.0
 11
60.34916249999995
 21
56.69078100000001
 31
0.0
  0
TEXT
  5
1BA
330
1E
100
AcDbEntity
  8
CSLAYER1
 62
     4
100
AcDbText
 10
60.849167
 20
57.190777
 30
0.0
 40
1.5
  1
%%c4.1
 41
1.142857142857144
 51
15.0
  7
FX_FONT
 72
     5
 11
66.84916700000001
 21
57.190777
 31
0.0
100
AcDbText
  0
TEXT
  5
1BB
330
1E
100
AcDbEntity
  8
CSLAYER1
 62
     4
100
AcDbText
 10
63.23519899999995
 20
52.94673149999995
 30
0.0
 40
1.5
  1
13
 41
1.200000000000017
 51
15.0
  7
FX_FONT
 72
     5
 11
66.23519899999999
 21
52.94673149999995
 31
0.0
100
AcDbText
  0
LINE
  5
1BC
330
1E
100
AcDbEntity
  8
CSLAYER1
 62
     4
100
AcDbLine
 10
58.23519749999999
 20
52.44673399999995
 30
0.0
 11
71.23519749999999
 21
52.44673399999995
 31
0.0
  0
LINE
  5
1BD
330
1E
100
AcDbEntity
  8
CSLAYER1
 62
     4
100
AcDbLine
 10
58.23519749999999
 20
52.44673399999995
 30
0.0
 11
59.684086
 21
52.8349625
 31
0.0
  0
LINE
  5
1BE
330
1E
100
AcDbEntity
  8
CSLAYER1
 62
     4
100
AcDbLine
 10
58.23519749999999
 20
52.44673399999995
 30
0.0
 11
59.684086
 21
52.0585055
 31
0.0
  0
LINE
  5
1BF
330
1E
100
AcDbEntity
  8
CSLAYER1
 62
     4
100
AcDbLine
 10
71.23519749999999
 20
52.44673399999995
 30
0.0
 11
69.78630849999989
 21
52.8349625
 31
0.0
  0
LINE
  5
1C0
330
1E
100
AcDbEntity
  8
CSLAYER1
 62
     4
100
AcDbLine
 10
71.23519749999999
 20
52.44673399999995
 30
0.0
 11
69.78630849999989
 21
52.0585055
 31
0.0
  0
LINE
  5
1C1
330
1E
100
AcDbEntity
  8
CSLAYER1
 62
     4
100
AcDbLine
 10
58.23519749999999
 20
46.18980249999999
 30
0.0
 11
58.23519749999999
 21
52.94673399999995
 31
0.0
  0
LINE
  5
1C2
330
1E
100
AcDbEntity
  8
CSLAYER1
 62
     4
100
AcDbLine
 10
71.23519749999999
 20
50.01437399999995
 30
0.0
 11
71.23519749999999
 21
52.94673399999995
 31
0.0
  0
TEXT
  5
1C3
330
1E
100
AcDbEntity
  8
CSLAYER1
 62
     4
100
AcDbText
 10
35.1904295
 20
40.47633
 30
0.0
 40
1.5
  1
9   
 50
90.0
 41
1.428571428571428
 51
15.0
  7
FX_FONT
 72
     5
 11
35.1904295
 21
46.47632999999999
 31
0.0
100
AcDbText
  0
TEXT
  5
1C4
330
1E
100
AcDbEntity
  8
CSLAYER1
 62
     4
100
AcDbText
 10
34.4404295
 20
46.47632999999999
 30
0.0
 40
0.75
  1
  0
 50
90.0
 41
1.607142857142857
 51
15.0
  7
FX_FONT
 72
     5
 11
34.4404295
 21
48.72633
 31
0.0
100
AcDbText
  0
TEXT
  5
1C5
330
1E
100
AcDbEntity
  8
CSLAYER1
 62
     4
100
AcDbText
 10
35.1904295
 20
46.47632999999999
 30
0.0
 40
0.75
  1
-0.15
 50
90.0
 41
1.071428571428559
 51
15.0
  7
FX_FONT
 72
     5
 11
35.1904295
 21
50.22632999999995
 31
0.0
100
AcDbText
  0
LINE
  5
1C6
330
1E
100
AcDbEntity
  8
CSLAYER1
 62
     4
100
AcDbLine
 10
35.690431
 20
36.6898025
 30
0.0
 11
35.690431
 21
45.6898025
 31
0.0
  0
LINE
  5
1C7
330
1E
100
AcDbEntity
  8
CSLAYER1
 62
     4
100
AcDbLine
 10
35.690431
 20
36.6898025
 30
0.0
 11
35.3022025
 21
38.1386915
 31
0.0
  0
LINE
  5
1C8
330
1E
100
AcDbEntity
  8
CSLAYER1
 62
     4
100
AcDbLine
 10
35.690431
 20
36.6898025
 30
0.0
 11
36.0786595
 21
38.1386915
 31
0.0
  0
LINE
  5
1C9
330
1E
100
AcDbEntity
  8
CSLAYER1
 62
     4
100
AcDbLine
 10
35.690431
 20
45.6898025
 30
0.0
 11
35.3022025
 21
44.240914
 31
0.0
  0
LINE
  5
1CA
330
1E
100
AcDbEntity
  8
CSLAYER1
 62
     4
100
AcDbLine
 10
35.690431
 20
45.6898025
 30
0.0
 11
36.0786595
 21
44.240914
 31
0.0
  0
LINE
  5
1CB
330
1E
100
AcDbEntity
  8
CSLAYER1
 62
     4
100
AcDbLine
 10
56.23519749999999
 20
36.6898025
 30
0.0
 11
35.19043099999999
 21
36.6898025
 31
0.0
  0
LINE
  5
1CC
330
1E
100
AcDbEntity
  8
CSLAYER1
 62
     4
100
AcDbLine
 10
57.7351975
 20
45.6898025
 30
0.0
 11
35.19043099999999
 21
45.6898025
 31
0.0
  0
TEXT
  5
1CD
330
1E
100
AcDbEntity
  8
CSLAYER1
 62
     4
100
AcDbText
 10
38.728259
 20
34.117559
 30
0.0
 40
1.448844
  1
切刃部有効11.5
 50
329.9999986610788
 41
0.7654096383121944
 51
15.0
  7
FX_FONT
 72
     5
 11
48.011998
 21
28.7575895
 31
0.0
100
AcDbText
  0
LINE
  5
1CE
330
1E
100
AcDbEntity
  8
CSLAYER1
 62
     4
100
AcDbLine
 10
38.369648
 20
33.747251
 30
0.0
 11
48.32894
 21
27.997251
 31
0.0
  0
LINE
  5
1CF
330
1E
100
AcDbEntity
  8
CSLAYER1
 62
     4
100
AcDbLine
 10
38.369648
 20
33.747251
 30
0.0
 11
39.8185365
 21
33.35902249999999
 31
0.0
  0
LINE
  5
1D0
330
1E
100
AcDbEntity
  8
CSLAYER1
 62
     4
100
AcDbLine
 10
38.369648
 20
33.747251
 30
0.0
 11
39.43030800000001
 21
32.686591
 31
0.0
  0
LINE
  5
1D1
330
1E
100
AcDbEntity
  8
CSLAYER1
 62
     4
100
AcDbLine
 10
48.32894
 20
27.997251
 30
0.0
 11
46.880051
 21
28.3854795
 31
0.0
  0
LINE
  5
1D2
330
1E
100
AcDbEntity
  8
CSLAYER1
 62
     4
100
AcDbLine
 10
48.32894
 20
27.997251
 30
0.0
 11
47.26828
 21
29.0579115
 31
0.0
  0
LINE
  5
1D3
330
1E
100
AcDbEntity
  8
CSLAYER1
 62
     4
100
AcDbLine
 10
43.9851975
 20
43.4736685
 30
0.0
 11
38.119648
 21
33.3142385
 31
0.0
  0
LINE
  5
1D4
330
1E
100
AcDbEntity
  8
CSLAYER1
 62
     4
100
AcDbLine
 10
53.94448950000001
 20
37.7236685
 30
0.0
 11
48.07894000000001
 21
27.5642385
 31
0.0
  0
TEXT
  5
1D5
330
1E
100
AcDbEntity
  8
CSLAYER1
 62
     4
100
AcDbText
 10
60.985199
 20
30.1749325
 30
0.0
 40
1.5
  1
14.5
 41
1.090909090909081
 51
15.0
  7
FX_FONT
 72
     5
 11
66.98519899999995
 21
30.1749325
 31
0.0
100
AcDbText
  0
LINE
  5
1D6
330
1E
100
AcDbEntity
  8
CSLAYER1
 62
     4
100
AcDbLine
 10
56.7351975
 20
29.6749315
 30
0.0
 11
71.23519749999999
 21
29.6749315
 31
0.0
  0
LINE
  5
1D7
330
1E
100
AcDbEntity
  8
CSLAYER1
 62
     4
100
AcDbLine
 10
56.7351975
 20
29.6749315
 30
0.0
 11
58.184086
 21
30.06315999999999
 31
0.0
  0
LINE
  5
1D8
330
1E
100
AcDbEntity
  8
CSLAYER1
 62
     4
100
AcDbLine
 10
56.7351975
 20
29.6749315
 30
0.0
 11
58.184086
 21
29.2867025
 31
0.0
  0
LINE
  5
1D9
330
1E
100
AcDbEntity
  8
CSLAYER1
 62
     4
100
AcDbLine
 10
71.23519749999999
 20
29.6749315
 30
0.0
 11
69.78630849999989
 21
30.06315999999999
 31
0.0
  0
LINE
  5
1DA
330
1E
100
AcDbEntity
  8
CSLAYER1
 62
     4
100
AcDbLine
 10
71.23519749999999
 20
29.6749315
 30
0.0
 11
69.78630849999989
 21
29.2867025
 31
0.0
  0
LINE
  5
1DB
330
1E
100
AcDbEntity
  8
CSLAYER1
 62
     4
100
AcDbLine
 10
56.7351975
 20
36.18980249999999
 30
0.0
 11
56.7351975
 21
29.1749315
 31
0.0
  0
LINE
  5
1DC
330
1E
100
AcDbEntity
  8
CSLAYER1
 62
     4
100
AcDbLine
 10
71.23519749999999
 20
32.965231
 30
0.0
 11
71.23519749999999
 21
29.1749315
 31
0.0
  0
TEXT
  5
1DD
330
1E
100
AcDbEntity
  8
CSLAYER1
 62
     4
100
AcDbText
 10
30.22070499999999
 20
13.27697349999999
 30
0.0
 40
1.5
  1
4
 50
90.0
 41
1.5
 51
15.0
  7
FX_FONT
 72
     5
 11
30.22070499999999
 21
14.77697349999999
 31
0.0
100
AcDbText
  0
LINE
  5
1DE
330
1E
100
AcDbEntity
  8
CSLAYER1
 62
     4
100
AcDbLine
 10
30.7207045
 20
12.0269735
 30
0.0
 11
30.7207045
 21
16.02697349999999
 31
0.0
  0
LINE
  5
1DF
330
1E
100
AcDbEntity
  8
CSLAYER1
 62
     4
100
AcDbLine
 10
30.7207045
 20
12.0269735
 30
0.0
 11
30.3324755
 21
13.47586249999999
 31
0.0
  0
LINE
  5
1E0
330
1E
100
AcDbEntity
  8
CSLAYER1
 62
     4
100
AcDbLine
 10
30.7207045
 20
12.0269735
 30
0.0
 11
31.108933
 21
13.47586249999999
 31
0.0
  0
LINE
  5
1E1
330
1E
100
AcDbEntity
  8
CSLAYER1
 62
     4
100
AcDbLine
 10
30.7207045
 20
16.02697349999999
 30
0.0
 11
30.3324755
 21
14.578085
 31
0.0
  0
LINE
  5
1E2
330
1E
100
AcDbEntity
  8
CSLAYER1
 62
     4
100
AcDbLine
 10
30.7207045
 20
16.02697349999999
 30
0.0
 11
31.108933
 21
14.578085
 31
0.0
  0
LINE
  5
1E3
330
1E
100
AcDbEntity
  8
CSLAYER1
 62
     4
100
AcDbLine
 10
36.728781
 20
12.0269735
 30
0.0
 11
30.2207045
 21
12.0269735
 31
0.0
  0
LINE
  5
1E4
330
1E
100
AcDbEntity
  8
CSLAYER1
 62
     4
100
AcDbLine
 10
36.728781
 20
16.02697349999999
 30
0.0
 11
30.2207045
 21
16.02697349999999
 31
0.0
  0
ENDSEC
  0
SECTION
  2
OBJECTS
  0
DICTIONARY
  5
C
330
0
100
AcDbDictionary
  3
ACAD_GROUP
350
D
  3
ACAD_LAYOUT
350
19
  3
ACAD_MLINESTYLE
350
16
  3
ACAD_PLOTSETTINGS
350
18
1001
ACAD
1000
TREAT_AS_HARD
1070
     0
1000
TREAT_AS_HARD
1070
     0
1000
TREAT_AS_HARD
1070
     0
  0
DICTIONARY
  5
167
330
1E
100
AcDbDictionary
  3
ACAD_LAYOUTSELFREF
350
1E9
1001
ACAD
1000
TREAT_AS_HARD
1070
     0
1000
TREAT_AS_HARD
1070
     0
  0
DICTIONARY
  5
165
330
1A
100
AcDbDictionary
  3
ACAD_LAYOUTSELFREF
350
1E8
1001
ACAD
1000
TREAT_AS_HARD
1070
     0
1000
TREAT_AS_HARD
1070
     0
  0
DICTIONARY
  5
D
102
{ACAD_REACTORS
330
C
102
}
330
C
100
AcDbDictionary
1001
ACAD
1000
TREAT_AS_HARD
1070
     0
1000
TREAT_AS_HARD
1070
     0
1000
TREAT_AS_HARD
1070
     0
  0
DICTIONARY
  5
19
102
{ACAD_REACTORS
330
C
102
}
330
C
100
AcDbDictionary
1001
ACAD
1000
TREAT_AS_HARD
1070
     0
1000
TREAT_AS_HARD
1070
     0
1000
TREAT_AS_HARD
1070
     0
  0
DICTIONARY
  5
16
102
{ACAD_REACTORS
330
C
102
}
330
C
100
AcDbDictionary
  3
STANDARD
350
17
1001
ACAD
1000
TREAT_AS_HARD
1070
     0
1000
TREAT_AS_HARD
1070
     0
1000
TREAT_AS_HARD
1070
     0
  0
DICTIONARY
  5
18
102
{ACAD_REACTORS
330
C
102
}
330
C
100
AcDbDictionary
1001
ACAD
1000
TREAT_AS_HARD
1070
     0
1000
TREAT_AS_HARD
1070
     0
1000
TREAT_AS_HARD
1070
     0
  0
XRECORD
  5
1E9
102
{ACAD_REACTORS
330
167
102
}
330
167
100
AcDbXrecord
340
1E
  0
XRECORD
  5
1E8
102
{ACAD_REACTORS
330
165
102
}
330
165
100
AcDbXrecord
340
1A
  0
MLINESTYLE
  5
17
102
{ACAD_REACTORS
330
16
102
}
330
16
100
AcDbMlineStyle
  2
STANDARD
 70
     0
  3

 62
   256
 51
90.0
 52
90.0
 71
     2
 49
0.5
 62
   256
  6
BYLAYER
 49
-0.5
 62
   256
  6
BYLAYER
  0
ENDSEC
  0
EOF
