  0
SECTION
  2
HEADER
  9
$ACADVER
  1
AC1012
  9
$DWGCODEPAGE
  3
dos932
  9
$INSBASE
 10
0.0
 20
0.0
 30
0.0
  9
$EXTMIN
 10
0.4894416100455601
 20
0.4902653820932415
 30
-0.0000000349181948
  9
$EXTMAX
 10
144.0134587653603
 20
99.50454747945139
 30
0.0000000814935747
  9
$LIMMIN
 10
0.0
 20
0.0
  9
$LIMMAX
 10
297.0
 20
210.0
  9
$ORTHOMODE
 70
     0
  9
$REGENMODE
 70
     1
  9
$FILLMODE
 70
     1
  9
$QTEXTMODE
 70
     0
  9
$MIRRTEXT
 70
     1
  9
$DRAGMODE
 70
     2
  9
$LTSCALE
 40
15.0
  9
$OSMODE
 70
    37
  9
$ATTMODE
 70
     1
  9
$TEXTSIZE
 40
0.2
  9
$TRACEWID
 40
0.05
  9
$TEXTSTYLE
  7
GOTHIC
  9
$CLAYER
  8
CSLAYER1
  9
$CELTYPE
  6
BYLAYER
  9
$CECOLOR
 62
   256
  9
$CELTSCALE
 40
1.0
  9
$DELOBJ
 70
     1
  9
$DISPSILH
 70
     0
  9
$DIMSCALE
 40
1.0
  9
$DIMASZ
 40
0.18
  9
$DIMEXO
 40
0.0625
  9
$DIMDLI
 40
0.38
  9
$DIMRND
 40
0.0
  9
$DIMDLE
 40
0.0
  9
$DIMEXE
 40
0.18
  9
$DIMTP
 40
0.0
  9
$DIMTM
 40
0.0
  9
$DIMTXT
 40
0.18
  9
$DIMCEN
 40
0.09
  9
$DIMTSZ
 40
0.0
  9
$DIMTOL
 70
     0
  9
$DIMLIM
 70
     0
  9
$DIMTIH
 70
     1
  9
$DIMTOH
 70
     1
  9
$DIMSE1
 70
     0
  9
$DIMSE2
 70
     0
  9
$DIMTAD
 70
     0
  9
$DIMZIN
 70
     0
  9
$DIMBLK
  1

  9
$DIMASO
 70
     1
  9
$DIMSHO
 70
     1
  9
$DIMPOST
  1

  9
$DIMAPOST
  1

  9
$DIMALT
 70
     0
  9
$DIMALTD
 70
     2
  9
$DIMALTF
 40
25.4
  9
$DIMLFAC
 40
1.0
  9
$DIMTOFL
 70
     0
  9
$DIMTVP
 40
0.0
  9
$DIMTIX
 70
     0
  9
$DIMSOXD
 70
     0
  9
$DIMSAH
 70
     0
  9
$DIMBLK1
  1

  9
$DIMBLK2
  1

  9
$DIMSTYLE
  2
STANDARD
  9
$DIMCLRD
 70
     0
  9
$DIMCLRE
 70
     0
  9
$DIMCLRT
 70
     0
  9
$DIMTFAC
 40
1.0
  9
$DIMGAP
 40
0.09
  9
$DIMJUST
 70
     0
  9
$DIMSD1
 70
     0
  9
$DIMSD2
 70
     0
  9
$DIMTOLJ
 70
     1
  9
$DIMTZIN
 70
     0
  9
$DIMALTZ
 70
     0
  9
$DIMALTTZ
 70
     0
  9
$DIMFIT
 70
     3
  9
$DIMUPT
 70
     0
  9
$DIMUNIT
 70
     2
  9
$DIMDEC
 70
     4
  9
$DIMTDEC
 70
     4
  9
$DIMALTU
 70
     2
  9
$DIMALTTD
 70
     2
  9
$DIMTXSTY
  7
STANDARD
  9
$DIMAUNIT
 70
     0
  9
$LUNITS
 70
     2
  9
$LUPREC
 70
     4
  9
$SKETCHINC
 40
0.1
  9
$FILLETRAD
 40
0.0
  9
$AUNITS
 70
     0
  9
$AUPREC
 70
     0
  9
$MENU
  1
ACAD
  9
$ELEVATION
 40
0.0
  9
$PELEVATION
 40
0.0
  9
$THICKNESS
 40
0.0
  9
$LIMCHECK
 70
     0
  9
$BLIPMODE
 70
     1
  9
$CHAMFERA
 40
0.0
  9
$CHAMFERB
 40
0.0
  9
$CHAMFERC
 40
0.0
  9
$CHAMFERD
 40
0.0
  9
$SKPOLY
 70
     0
  9
$TDCREATE
 40
2453453.000000000
  9
$TDUPDATE
 40
2453575.541627662
  9
$TDINDWG
 40
0.0011270833
  9
$TDUSRTIMER
 40
0.0011267361
  9
$USRTIMER
 70
     1
  9
$ANGBASE
 50
0.0
  9
$ANGDIR
 70
     0
  9
$PDMODE
 70
     0
  9
$PDSIZE
 40
0.0
  9
$PLINEWID
 40
0.0
  9
$COORDS
 70
     0
  9
$SPLFRAME
 70
     0
  9
$SPLINETYPE
 70
     6
  9
$SPLINESEGS
 70
     8
  9
$ATTDIA
 70
     0
  9
$ATTREQ
 70
     1
  9
$HANDLING
 70
 22529
  9
$HANDSEED
  5
242
  9
$SURFTAB1
 70
     6
  9
$SURFTAB2
 70
     6
  9
$SURFTYPE
 70
     6
  9
$SURFU
 70
     6
  9
$SURFV
 70
     6
  9
$UCSNAME
  2

  9
$UCSORG
 10
0.0
 20
0.0
 30
0.0
  9
$UCSXDIR
 10
1.0
 20
0.0
 30
0.0
  9
$UCSYDIR
 10
0.0
 20
1.0
 30
0.0
  9
$PUCSNAME
  2

  9
$PUCSORG
 10
0.0
 20
0.0
 30
0.0
  9
$PUCSXDIR
 10
1.0
 20
0.0
 30
0.0
  9
$PUCSYDIR
 10
0.0
 20
1.0
 30
0.0
  9
$USERI1
 70
     0
  9
$USERI2
 70
     0
  9
$USERI3
 70
     0
  9
$USERI4
 70
     0
  9
$USERI5
 70
     0
  9
$USERR1
 40
0.0
  9
$USERR2
 40
0.0
  9
$USERR3
 40
0.0
  9
$USERR4
 40
0.0
  9
$USERR5
 40
0.0
  9
$WORLDVIEW
 70
     1
  9
$SHADEDGE
 70
     3
  9
$SHADEDIF
 70
    70
  9
$TILEMODE
 70
     1
  9
$MAXACTVP
 70
    64
  9
$PINSBASE
 10
0.0
 20
0.0
 30
0.0
  9
$PLIMCHECK
 70
     0
  9
$PEXTMIN
 10
1.000000000000000E+20
 20
1.000000000000000E+20
 30
1.000000000000000E+20
  9
$PEXTMAX
 10
-1.000000000000000E+20
 20
-1.000000000000000E+20
 30
-1.000000000000000E+20
  9
$PLIMMIN
 10
0.0
 20
0.0
  9
$PLIMMAX
 10
12.0
 20
9.0
  9
$UNITMODE
 70
     0
  9
$VISRETAIN
 70
     1
  9
$PLINEGEN
 70
     0
  9
$PSLTSCALE
 70
     1
  9
$TREEDEPTH
 70
  3020
  9
$PICKSTYLE
 70
     3
  9
$CMLSTYLE
  2
STANDARD
  9
$CMLJUST
 70
     0
  9
$CMLSCALE
 40
1.0
  9
$SAVEIMAGES
 70
     1
  0
ENDSEC
  0
SECTION
  2
CLASSES
  0
CLASS
  1
ACDBDICTIONARYWDFLT
  2
AcDbDictionaryWithDefault
  3
AutoCAD 2000
 90
    32768
280
     0
281
     0
  0
CLASS
  1
ACDBPLACEHOLDER
  2
AcDbPlaceHolder
  3
AutoCAD 2000
 90
    32768
280
     0
281
     0
  0
CLASS
  1
LAYOUT
  2
AcDbLayout
  3
AutoCAD 2000
 90
    32768
280
     0
281
     0
  0
CLASS
  1
DICTIONARYVAR
  2
AcDbDictionaryVar
  3
AutoCAD 2000
 90
    32768
280
     0
281
     0
  0
CLASS
  1
LONG_TRANSACTION
  2
AcDbLongTransaction
  3
AutoCAD 2000
 90
    32768
280
     0
281
     0
  0
CLASS
  1
LWPOLYLINE
  2
AcDbPolyline
  3
AutoCAD 2000
 90
    32768
280
     0
281
     1
  0
CLASS
  1
HATCH
  2
AcDbHatch
  3
AutoCAD 2000
 90
    32768
280
     0
281
     1
  0
CLASS
  1
XRECORD
  2
AcDbXrecord
  3
AutoCAD 2000
 90
    32768
280
     0
281
     0
  0
CLASS
  1
LONG_TRANSACTION
  2
AcDbLongTransaction
  3
AutoCAD 2000
 90
    32768
280
     0
281
     0
  0
CLASS
  1
LWPOLYLINE
  2
AcDbPolyline
  3
AutoCAD 2000
 90
    32768
280
     0
281
     1
  0
CLASS
  1
HATCH
  2
AcDbHatch
  3
AutoCAD 2000
 90
    32768
280
     0
281
     1
  0
CLASS
  1
XRECORD
  2
AcDbXrecord
  3
AutoCAD 2000
 90
    32768
280
     0
281
     0
  0
CLASS
  1
LONG_TRANSACTION
  2
AcDbLongTransaction
  3
AutoCAD 2000
 90
    32768
280
     0
281
     0
  0
CLASS
  1
LWPOLYLINE
  2
AcDbPolyline
  3
AutoCAD 2000
 90
    32768
280
     0
281
     1
  0
CLASS
  1
HATCH
  2
AcDbHatch
  3
AutoCAD 2000
 90
    32768
280
     0
281
     1
  0
CLASS
  1
XRECORD
  2
AcDbXrecord
  3
AutoCAD 2000
 90
    32768
280
     0
281
     0
  0
ENDSEC
  0
SECTION
  2
TABLES
  0
TABLE
  2
VPORT
  5
8
330
0
100
AcDbSymbolTable
 70
     2
  0
VPORT
  5
23F
330
8
100
AcDbSymbolTableRecord
100
AcDbViewportTableRecord
  2
*ACTIVE
 70
     0
 10
0.0
 20
0.0
 11
1.0
 21
1.0
 12
72.25145018770297
 22
49.99740643077231
 13
0.0
 23
0.0
 14
1.0
 24
1.0
 15
0.0
 25
0.0
 16
0.0
 26
0.0
 36
1.0
 17
0.0
 27
0.0
 37
0.0
 40
99.73264448258687
 41
1.458837772397094
 42
50.0
 43
0.0
 44
0.0
 50
0.0
 51
0.0
 71
     0
 72
   100
 73
     1
 74
     1
 75
     0
 76
     0
 77
     0
 78
     0
  0
ENDTAB
  0
TABLE
  2
LTYPE
  5
5
330
0
100
AcDbSymbolTable
 70
     4
  0
LTYPE
  5
13
330
5
100
AcDbSymbolTableRecord
100
AcDbLinetypeTableRecord
  2
BYBLOCK
 70
     0
  3

 72
    65
 73
     0
 40
0.0
  0
LTYPE
  5
14
330
5
100
AcDbSymbolTableRecord
100
AcDbLinetypeTableRecord
  2
BYLAYER
 70
     0
  3

 72
    65
 73
     0
 40
0.0
  0
LTYPE
  5
15
330
5
100
AcDbSymbolTableRecord
100
AcDbLinetypeTableRecord
  2
CONTINUOUS
 70
     0
  3
Solid line
 72
    65
 73
     0
 40
0.0
  0
LTYPE
  5
23
330
5
100
AcDbSymbolTableRecord
100
AcDbLinetypeTableRecord
  2
DASHED
 70
     0
  3
__ __ __ __ __ __ __ __ __ __ __ __ __ __ __
 72
    65
 73
     2
 40
0.75
 49
0.5
 74
     0
 49
-0.25
 74
     0
  0
LTYPE
  5
25
330
5
100
AcDbSymbolTableRecord
100
AcDbLinetypeTableRecord
  2
DOT
 70
     0
  3
...............................................
 72
    65
 73
     2
 40
0.25
 49
0.0
 74
     0
 49
-0.25
 74
     0
  0
LTYPE
  5
28
330
5
100
AcDbSymbolTableRecord
100
AcDbLinetypeTableRecord
  2
CENTER
 70
     0
  3
____ _ ____ _ ____ _ ____ _ ____ _ ____ _ ____ 
 72
    65
 73
     4
 40
2.0
 49
1.25
 74
     0
 49
-0.25
 74
     0
 49
0.25
 74
     0
 49
-0.25
 74
     0
  0
ENDTAB
  0
TABLE
  2
LAYER
  5
2
330
0
100
AcDbSymbolTable
 70
     3
  0
LAYER
  5
10
330
2
100
AcDbSymbolTableRecord
100
AcDbLayerTableRecord
  2
0
 70
     0
 62
     7
  6
CONTINUOUS
  0
LAYER
  5
22
330
2
100
AcDbSymbolTableRecord
100
AcDbLayerTableRecord
  2
CSLAYER1
 70
     0
 62
     7
  6
CONTINUOUS
  0
LAYER
  5
197
330
2
100
AcDbSymbolTableRecord
100
AcDbLayerTableRecord
  2
DEFPOINTS
 70
     0
 62
     7
  6
CONTINUOUS
  0
ENDTAB
  0
TABLE
  2
STYLE
  5
3
330
0
100
AcDbSymbolTable
 70
     3
  0
STYLE
  5
11
330
3
100
AcDbSymbolTableRecord
100
AcDbTextStyleTableRecord
  2
STANDARD
 70
     0
 40
0.0
 41
1.0
 50
0.0
 71
     0
 42
0.2
  3
txt
  4
extfont.shx
  0
STYLE
  5
3A
330
3
100
AcDbSymbolTableRecord
100
AcDbTextStyleTableRecord
  2
FX_FONT
 70
     0
 40
1.0
 41
1.0
 50
0.0
 71
     0
 42
1.0
  3
monotxt
  4
bigfont
  0
STYLE
  5
18F
330
3
100
AcDbSymbolTableRecord
100
AcDbTextStyleTableRecord
  2
GOTHIC
 70
     0
 40
0.0
 41
1.0
 50
0.0
 71
     0
 42
0.2
  3
txt.shx
  4
extfont.shx
  0
ENDTAB
  0
TABLE
  2
VIEW
  5
6
330
0
100
AcDbSymbolTable
 70
     0
  0
ENDTAB
  0
TABLE
  2
UCS
  5
7
330
0
100
AcDbSymbolTable
 70
     0
  0
ENDTAB
  0
TABLE
  2
APPID
  5
9
330
0
100
AcDbSymbolTable
 70
     1
  0
APPID
  5
12
330
9
100
AcDbSymbolTableRecord
100
AcDbRegAppTableRecord
  2
ACAD
 70
     0
  0
ENDTAB
  0
TABLE
  2
DIMSTYLE
  5
A
330
0
100
AcDbSymbolTable
 70
     1
  0
DIMSTYLE
105
18C
330
A
100
AcDbSymbolTableRecord
100
AcDbDimStyleTableRecord
  2
STANDARD
 70
     0
  3

  4

  5

  6

  7

 40
1.0
 41
0.18
 42
0.0625
 43
0.38
 44
0.18
 45
0.0
 46
0.0
 47
0.0
 48
0.0
140
0.18
141
0.09
142
0.0
143
25.4
144
1.0
145
0.0
146
1.0
147
0.09
 71
     0
 72
     0
 73
     1
 74
     1
 75
     0
 76
     0
 77
     0
 78
     0
170
     0
171
     2
172
     0
173
     0
174
     0
175
     0
176
     0
177
     0
178
     0
270
     2
271
     4
272
     4
273
     2
274
     2
340
11
275
     0
280
     0
281
     0
282
     0
283
     1
284
     0
285
     0
286
     0
287
     3
288
     0
  0
ENDTAB
  0
TABLE
  2
BLOCK_RECORD
  5
1
330
0
100
AcDbSymbolTable
 70
    21
  0
BLOCK_RECORD
  5
1E
102
{ACAD_XDICTIONARY
360
195
102
}
330
1
100
AcDbSymbolTableRecord
100
AcDbBlockTableRecord
  2
*MODEL_SPACE
  0
BLOCK_RECORD
  5
1A
102
{ACAD_XDICTIONARY
360
193
102
}
330
1
100
AcDbSymbolTableRecord
100
AcDbBlockTableRecord
  2
*PAPER_SPACE
  0
BLOCK_RECORD
  5
3F
330
1
100
AcDbSymbolTableRecord
100
AcDbBlockTableRecord
  2
FXDIM0000
  0
BLOCK_RECORD
  5
47
330
1
100
AcDbSymbolTableRecord
100
AcDbBlockTableRecord
  2
*D1
  0
BLOCK_RECORD
  5
52
330
1
100
AcDbSymbolTableRecord
100
AcDbBlockTableRecord
  2
*D2
  0
BLOCK_RECORD
  5
5B
330
1
100
AcDbSymbolTableRecord
100
AcDbBlockTableRecord
  2
*D3
  0
BLOCK_RECORD
  5
66
330
1
100
AcDbSymbolTableRecord
100
AcDbBlockTableRecord
  2
FXDIM0001
  0
BLOCK_RECORD
  5
70
330
1
100
AcDbSymbolTableRecord
100
AcDbBlockTableRecord
  2
FXDIM0002
  0
BLOCK_RECORD
  5
7A
330
1
100
AcDbSymbolTableRecord
100
AcDbBlockTableRecord
  2
*D6
  0
BLOCK_RECORD
  5
87
330
1
100
AcDbSymbolTableRecord
100
AcDbBlockTableRecord
  2
*D7
  0
BLOCK_RECORD
  5
8E
330
1
100
AcDbSymbolTableRecord
100
AcDbBlockTableRecord
  2
*D8
  0
BLOCK_RECORD
  5
98
330
1
100
AcDbSymbolTableRecord
100
AcDbBlockTableRecord
  2
*D9
  0
BLOCK_RECORD
  5
A3
330
1
100
AcDbSymbolTableRecord
100
AcDbBlockTableRecord
  2
*D10
  0
BLOCK_RECORD
  5
AC
330
1
100
AcDbSymbolTableRecord
100
AcDbBlockTableRecord
  2
*D11
  0
BLOCK_RECORD
  5
B9
330
1
100
AcDbSymbolTableRecord
100
AcDbBlockTableRecord
  2
*D12
  0
BLOCK_RECORD
  5
C6
330
1
100
AcDbSymbolTableRecord
100
AcDbBlockTableRecord
  2
*D13
  0
BLOCK_RECORD
  5
D1
330
1
100
AcDbSymbolTableRecord
100
AcDbBlockTableRecord
  2
*D14
  0
BLOCK_RECORD
  5
DC
330
1
100
AcDbSymbolTableRecord
100
AcDbBlockTableRecord
  2
*D15
  0
BLOCK_RECORD
  5
E7
330
1
100
AcDbSymbolTableRecord
100
AcDbBlockTableRecord
  2
*D16
  0
BLOCK_RECORD
  5
198
330
1
100
AcDbSymbolTableRecord
100
AcDbBlockTableRecord
  2
*D17
  0
BLOCK_RECORD
  5
1A6
330
1
100
AcDbSymbolTableRecord
100
AcDbBlockTableRecord
  2
*D18
  0
BLOCK_RECORD
  5
1B4
330
1
100
AcDbSymbolTableRecord
100
AcDbBlockTableRecord
  2
*D19
  0
BLOCK_RECORD
  5
1C3
330
1
100
AcDbSymbolTableRecord
100
AcDbBlockTableRecord
  2
*D20
  0
ENDTAB
  0
ENDSEC
  0
SECTION
  2
BLOCKS
  0
BLOCK
  5
1F
330
1E
100
AcDbEntity
  8
0
100
AcDbBlockBegin
  2
*MODEL_SPACE
 70
     0
 10
0.0
 20
0.0
 30
0.0
  3
*MODEL_SPACE
  1

  0
ENDBLK
  5
20
330
1E
100
AcDbEntity
  8
0
100
AcDbBlockEnd
  0
BLOCK
  5
1B
330
1A
100
AcDbEntity
 67
     1
  8
0
100
AcDbBlockBegin
  2
*PAPER_SPACE
 70
     0
 10
0.0
 20
0.0
 30
0.0
  3
*PAPER_SPACE
  1

  0
ENDBLK
  5
1C
330
1A
100
AcDbEntity
 67
     1
  8
0
100
AcDbBlockEnd
  0
BLOCK
  5
40
330
3F
100
AcDbEntity
  8
0
100
AcDbBlockBegin
  2
FXDIM0000
 70
     0
 10
0.0
 20
0.0
 30
0.0
  3
FXDIM0000
  1

  0
LINE
  5
41
330
3F
100
AcDbEntity
  8
CSLAYER1
  6
CONTINUOUS
 62
     4
100
AcDbLine
 10
146.7388419999998
 20
124.439704
 30
0.0
 11
140.096078
 21
99.64857100000001
 31
0.0
  0
LINE
  5
42
330
3F
100
AcDbEntity
  8
CSLAYER1
  6
CONTINUOUS
 62
     4
100
AcDbLine
 10
146.7388419999998
 20
124.439704
 30
0.0
 11
146.7388419999998
 21
121.439704
 31
0.0
  0
LINE
  5
43
330
3F
100
AcDbEntity
  8
CSLAYER1
  6
CONTINUOUS
 62
     4
100
AcDbLine
 10
146.7388419999998
 20
124.439704
 30
0.0
 11
145.238842
 21
121.841628
 31
0.0
  0
LINE
  5
44
330
3F
100
AcDbEntity
  8
CSLAYER1
  6
CONTINUOUS
 62
     4
100
AcDbLine
 10
140.096078
 20
99.64857100000001
 30
0.0
 11
125.8399959999999
 21
99.64857100000001
 31
0.0
  0
TEXT
  5
45
330
3F
100
AcDbEntity
  8
CSLAYER1
 62
     4
100
AcDbText
 10
125.8399959999999
 20
100.6485749999999
 30
0.0
 40
3.0
  1
%%c4.1
 41
1.142857142857132
 51
15.0
  7
FX_FONT
 72
     5
 11
137.8399959999997
 21
100.6485749999999
 31
0.0
100
AcDbText
  0
ENDBLK
  5
46
330
3F
100
AcDbEntity
  8
0
100
AcDbBlockEnd
  0
BLOCK
  5
48
330
47
100
AcDbEntity
  8
0
100
AcDbBlockBegin
  2
*D1
 70
     1
 10
0.0
 20
0.0
 30
0.0
  3
*D1
  1

  0
TEXT
  5
49
330
47
100
AcDbEntity
  8
CSLAYER1
 62
     4
100
AcDbText
 10
81.35151699999999
 20
117.8999939999999
 30
0.0
 40
3.0
  1
14.5~16
 50
90.0
 41
1.05
 51
15.0
  7
FX_FONT
 72
     5
 11
81.35151699999999
 21
138.8999939999999
 31
0.0
100
AcDbText
  0
LINE
  5
4A
330
47
100
AcDbEntity
  8
CSLAYER1
  6
CONTINUOUS
 62
     4
100
AcDbLine
 10
129.9982699999999
 20
112.4
 30
0.0
 11
81.351515
 21
112.4
 31
0.0
  0
LINE
  5
4B
330
47
100
AcDbEntity
  8
CSLAYER1
  6
CONTINUOUS
 62
     4
100
AcDbLine
 10
133.1159189999999
 20
144.4
 30
0.0
 11
81.351515
 21
144.4
 31
0.0
  0
LINE
  5
4C
330
47
100
AcDbEntity
  8
CSLAYER1
  6
CONTINUOUS
 62
     4
100
AcDbLine
 10
82.351515
 20
112.4
 30
0.0
 11
82.351515
 21
144.4
 31
0.0
  0
LINE
  5
4D
330
47
100
AcDbEntity
  8
CSLAYER1
  6
CONTINUOUS
 62
     4
100
AcDbLine
 10
82.351515
 20
112.4
 30
0.0
 11
81.575058
 21
115.2977769999999
 31
0.0
  0
LINE
  5
4E
330
47
100
AcDbEntity
  8
CSLAYER1
  6
CONTINUOUS
 62
     4
100
AcDbLine
 10
82.351515
 20
112.4
 30
0.0
 11
83.127972
 21
115.2977769999999
 31
0.0
  0
LINE
  5
4F
330
47
100
AcDbEntity
  8
CSLAYER1
  6
CONTINUOUS
 62
     4
100
AcDbLine
 10
82.351515
 20
144.4
 30
0.0
 11
81.575058
 21
141.5022229999999
 31
0.0
  0
LINE
  5
50
330
47
100
AcDbEntity
  8
CSLAYER1
  6
CONTINUOUS
 62
     4
100
AcDbLine
 10
82.351515
 20
144.4
 30
0.0
 11
83.127972
 21
141.5022229999999
 31
0.0
  0
ENDBLK
  5
51
330
47
100
AcDbEntity
  8
0
100
AcDbBlockEnd
  0
BLOCK
  5
53
330
52
100
AcDbEntity
  8
0
100
AcDbBlockBegin
  2
*D2
 70
     1
 10
0.0
 20
0.0
 30
0.0
  3
*D2
  1

  0
TEXT
  5
54
330
52
100
AcDbEntity
  8
CSLAYER1
 62
     4
100
AcDbText
 10
106.1316579999999
 20
61.372804
 30
0.0
 40
3.0
  1
25%%d
 50
77.4999969621937
 41
1.285714291450357
 51
15.0
  7
FX_FONT
 72
     5
 11
108.0796149999999
 21
70.159468
 31
0.0
100
AcDbText
  0
ARC
  5
55
330
52
100
AcDbEntity
  8
CSLAYER1
  6
CONTINUOUS
 62
     4
100
AcDbCircle
 10
126.8
 20
61.4
 30
0.0
 40
19.17253699999998
100
AcDbArc
 50
155.0
 51
180.0
  0
LINE
  5
56
330
52
100
AcDbEntity
  8
CSLAYER1
  6
CONTINUOUS
 62
     4
100
AcDbLine
 10
109.423781
 20
69.502664
 30
0.0
 11
108.902836
 21
66.548241
 31
0.0
  0
LINE
  5
57
330
52
100
AcDbEntity
  8
CSLAYER1
  6
CONTINUOUS
 62
     4
100
AcDbLine
 10
109.423781
 20
69.502664
 30
0.0
 11
107.4954179999999
 21
67.204531
 31
0.0
  0
LINE
  5
58
330
52
100
AcDbEntity
  8
CSLAYER1
  6
CONTINUOUS
 62
     4
100
AcDbLine
 10
107.6274629999999
 20
61.4
 30
0.0
 11
106.851006
 21
64.29777699999999
 31
0.0
  0
LINE
  5
59
330
52
100
AcDbEntity
  8
CSLAYER1
  6
CONTINUOUS
 62
     4
100
AcDbLine
 10
107.6274629999999
 20
61.4
 30
0.0
 11
108.403921
 21
64.29777699999999
 31
0.0
  0
ENDBLK
  5
5A
330
52
100
AcDbEntity
  8
0
100
AcDbBlockEnd
  0
BLOCK
  5
5C
330
5B
100
AcDbEntity
  8
0
100
AcDbBlockBegin
  2
*D3
 70
     1
 10
0.0
 20
0.0
 30
0.0
  3
*D3
  1

  0
TEXT
  5
5D
330
5B
100
AcDbEntity
  8
CSLAYER1
 62
     4
100
AcDbText
 10
131.3000029999999
 20
50.050911
 30
0.0
 40
3.0
  1
10.5
 41
1.090909090909098
 51
15.0
  7
FX_FONT
 72
     5
 11
143.300003
 21
50.050911
 31
0.0
100
AcDbText
  0
LINE
  5
5E
330
5B
100
AcDbEntity
  8
CSLAYER1
  6
CONTINUOUS
 62
     4
100
AcDbLine
 10
126.8
 20
60.4
 30
0.0
 11
126.8
 21
48.050909
 31
0.0
  0
LINE
  5
5F
330
5B
100
AcDbEntity
  8
CSLAYER1
  6
CONTINUOUS
 62
     4
100
AcDbLine
 10
147.8
 20
55.42285699999999
 30
0.0
 11
147.8
 21
48.050909
 31
0.0
  0
LINE
  5
60
330
5B
100
AcDbEntity
  8
CSLAYER1
  6
CONTINUOUS
 62
     4
100
AcDbLine
 10
126.8
 20
49.05090900000001
 30
0.0
 11
147.8
 21
49.05090900000001
 31
0.0
  0
LINE
  5
61
330
5B
100
AcDbEntity
  8
CSLAYER1
  6
CONTINUOUS
 62
     4
100
AcDbLine
 10
126.8
 20
49.05090900000001
 30
0.0
 11
129.697777
 21
49.82736599999999
 31
0.0
  0
LINE
  5
62
330
5B
100
AcDbEntity
  8
CSLAYER1
  6
CONTINUOUS
 62
     4
100
AcDbLine
 10
126.8
 20
49.05090900000001
 30
0.0
 11
129.697777
 21
48.274452
 31
0.0
  0
LINE
  5
63
330
5B
100
AcDbEntity
  8
CSLAYER1
  6
CONTINUOUS
 62
     4
100
AcDbLine
 10
147.8
 20
49.05090900000001
 30
0.0
 11
144.9022229999999
 21
49.82736599999999
 31
0.0
  0
LINE
  5
64
330
5B
100
AcDbEntity
  8
CSLAYER1
  6
CONTINUOUS
 62
     4
100
AcDbLine
 10
147.8
 20
49.05090900000001
 30
0.0
 11
144.9022229999999
 21
48.274452
 31
0.0
  0
ENDBLK
  5
65
330
5B
100
AcDbEntity
  8
0
100
AcDbBlockEnd
  0
BLOCK
  5
67
330
66
100
AcDbEntity
  8
0
100
AcDbBlockBegin
  2
FXDIM0001
 70
     0
 10
0.0
 20
0.0
 30
0.0
  3
FXDIM0001
  1

  0
LINE
  5
68
330
66
100
AcDbEntity
  8
CSLAYER1
  6
CONTINUOUS
 62
     4
100
AcDbLine
 10
154.8
 20
75.4
 30
0.0
 11
156.8
 21
78.864102
 31
0.0
  0
LINE
  5
69
330
66
100
AcDbEntity
  8
CSLAYER1
  6
CONTINUOUS
 62
     4
100
AcDbLine
 10
152.8
 20
78.864102
 30
0.0
 11
164.8
 21
78.864102
 31
0.0
  0
LINE
  5
6A
330
66
100
AcDbEntity
  8
CSLAYER1
  6
CONTINUOUS
 62
     4
100
AcDbLine
 10
152.8
 20
78.864102
 30
0.0
 11
154.8
 21
75.4
 31
0.0
  0
LINE
  5
6B
330
66
100
AcDbEntity
  8
CSLAYER1
  6
CONTINUOUS
 62
     4
100
AcDbLine
 10
158.8
 20
75.4
 30
0.0
 11
160.8
 21
78.864102
 31
0.0
  0
LINE
  5
6C
330
66
100
AcDbEntity
  8
CSLAYER1
  6
CONTINUOUS
 62
     4
100
AcDbLine
 10
156.8
 20
78.864102
 30
0.0
 11
158.8
 21
75.4
 31
0.0
  0
LINE
  5
6D
330
66
100
AcDbEntity
  8
CSLAYER1
  6
CONTINUOUS
 62
     4
100
AcDbLine
 10
162.8
 20
75.4
 30
0.0
 11
164.8
 21
78.864102
 31
0.0
  0
LINE
  5
6E
330
66
100
AcDbEntity
  8
CSLAYER1
  6
CONTINUOUS
 62
     4
100
AcDbLine
 10
160.8
 20
78.864102
 30
0.0
 11
162.8
 21
75.4
 31
0.0
  0
ENDBLK
  5
6F
330
66
100
AcDbEntity
  8
0
100
AcDbBlockEnd
  0
BLOCK
  5
71
330
70
100
AcDbEntity
  8
0
100
AcDbBlockBegin
  2
FXDIM0002
 70
     0
 10
0.0
 20
0.0
 30
0.0
  3
FXDIM0002
  1

  0
LINE
  5
72
330
70
100
AcDbEntity
  8
CSLAYER1
  6
CONTINUOUS
 62
     4
100
AcDbLine
 10
155.4
 20
61.4
 30
0.0
 11
153.3999999999998
 21
57.935898
 31
0.0
  0
LINE
  5
73
330
70
100
AcDbEntity
  8
CSLAYER1
  6
CONTINUOUS
 62
     4
100
AcDbLine
 10
153.3999999999998
 20
57.935898
 30
0.0
 11
165.4
 21
57.935898
 31
0.0
  0
LINE
  5
74
330
70
100
AcDbEntity
  8
CSLAYER1
  6
CONTINUOUS
 62
     4
100
AcDbLine
 10
157.4
 20
57.935898
 30
0.0
 11
155.4
 21
61.4
 31
0.0
  0
LINE
  5
75
330
70
100
AcDbEntity
  8
CSLAYER1
  6
CONTINUOUS
 62
     4
100
AcDbLine
 10
159.4
 20
61.4
 30
0.0
 11
157.4
 21
57.935898
 31
0.0
  0
LINE
  5
76
330
70
100
AcDbEntity
  8
CSLAYER1
  6
CONTINUOUS
 62
     4
100
AcDbLine
 10
161.4
 20
57.935898
 30
0.0
 11
159.4
 21
61.4
 31
0.0
  0
LINE
  5
77
330
70
100
AcDbEntity
  8
CSLAYER1
  6
CONTINUOUS
 62
     4
100
AcDbLine
 10
163.4
 20
61.4
 30
0.0
 11
161.4
 21
57.935898
 31
0.0
  0
LINE
  5
78
330
70
100
AcDbEntity
  8
CSLAYER1
  6
CONTINUOUS
 62
     4
100
AcDbLine
 10
165.4
 20
57.935898
 30
0.0
 11
163.4
 21
61.4
 31
0.0
  0
ENDBLK
  5
79
330
70
100
AcDbEntity
  8
0
100
AcDbBlockEnd
  0
BLOCK
  5
7B
330
7A
100
AcDbEntity
  8
0
100
AcDbBlockBegin
  2
*D6
 70
     1
 10
0.0
 20
0.0
 30
0.0
  3
*D6
  1

  0
TEXT
  5
7C
330
7A
100
AcDbEntity
  8
CSLAYER1
 62
     4
100
AcDbText
 10
88.654922
 20
126.867737
 30
0.0
 40
3.0
  1
2
 50
90.0
 41
1.5
 51
15.0
  7
FX_FONT
 72
     5
 11
88.654922
 21
129.867737
 31
0.0
100
AcDbText
  0
LINE
  5
7D
330
7A
100
AcDbEntity
  8
CSLAYER1
  6
CONTINUOUS
 62
     4
100
AcDbLine
 10
98.8
 20
126.363318
 30
0.0
 11
89.45599900000003
 21
126.363318
 31
0.0
  0
LINE
  5
7E
330
7A
100
AcDbEntity
  8
CSLAYER1
  6
CONTINUOUS
 62
     4
100
AcDbLine
 10
98.8
 20
130.436682
 30
0.0
 11
89.45599900000003
 21
130.436682
 31
0.0
  0
LINE
  5
7F
330
7A
100
AcDbEntity
  8
CSLAYER1
  6
CONTINUOUS
 62
     4
100
AcDbLine
 10
90.455999
 20
126.363318
 30
0.0
 11
90.455999
 21
130.436682
 31
0.0
  0
LINE
  5
80
330
7A
100
AcDbEntity
  8
CSLAYER1
  6
CONTINUOUS
 62
     4
100
AcDbLine
 10
90.455999
 20
120.3633179999999
 30
0.0
 11
90.455999
 21
126.363318
 31
0.0
  0
LINE
  5
81
330
7A
100
AcDbEntity
  8
CSLAYER1
  6
CONTINUOUS
 62
     4
100
AcDbLine
 10
90.455999
 20
126.363318
 30
0.0
 11
89.67954199999999
 21
123.465541
 31
0.0
  0
LINE
  5
82
330
7A
100
AcDbEntity
  8
CSLAYER1
  6
CONTINUOUS
 62
     4
100
AcDbLine
 10
90.455999
 20
126.363318
 30
0.0
 11
91.232456
 21
123.465541
 31
0.0
  0
LINE
  5
83
330
7A
100
AcDbEntity
  8
CSLAYER1
  6
CONTINUOUS
 62
     4
100
AcDbLine
 10
90.455999
 20
130.436682
 30
0.0
 11
90.455999
 21
136.436682
 31
0.0
  0
LINE
  5
84
330
7A
100
AcDbEntity
  8
CSLAYER1
  6
CONTINUOUS
 62
     4
100
AcDbLine
 10
90.455999
 20
130.436682
 30
0.0
 11
89.67954199999999
 21
133.334459
 31
0.0
  0
LINE
  5
85
330
7A
100
AcDbEntity
  8
CSLAYER1
  6
CONTINUOUS
 62
     4
100
AcDbLine
 10
90.455999
 20
130.436682
 30
0.0
 11
91.232456
 21
133.334459
 31
0.0
  0
ENDBLK
  5
86
330
7A
100
AcDbEntity
  8
0
100
AcDbBlockEnd
  0
BLOCK
  5
88
330
87
100
AcDbEntity
  8
0
100
AcDbBlockBegin
  2
*D7
 70
     1
 10
0.0
 20
0.0
 30
0.0
  3
*D7
  1

  0
TEXT
  5
89
330
87
100
AcDbEntity
  8
CSLAYER1
 62
     4
100
AcDbText
 10
114.4723259999999
 20
127.0036769999999
 30
0.0
 40
3.0
  1
R25
 50
61.95624034529458
 41
1.125000001699628
 51
15.0
  7
FX_FONT
 72
     5
 11
118.7036379999999
 21
134.946976
 31
0.0
100
AcDbText
  0
LINE
  5
8A
330
87
100
AcDbEntity
  8
CSLAYER1
  6
CONTINUOUS
 62
     4
100
AcDbLine
 10
110.953322
 20
118.270559
 30
0.0
 11
123.987821
 21
142.739791
 31
0.0
  0
LINE
  5
8B
330
87
100
AcDbEntity
  8
CSLAYER1
  6
CONTINUOUS
 62
     4
100
AcDbLine
 10
110.953322
 20
118.270559
 30
0.0
 11
111.6304069999999
 21
121.193153
 31
0.0
  0
LINE
  5
8C
330
87
100
AcDbEntity
  8
CSLAYER1
  6
CONTINUOUS
 62
     4
100
AcDbLine
 10
110.953322
 20
118.270559
 30
0.0
 11
113.0009909999997
 21
120.463057
 31
0.0
  0
ENDBLK
  5
8D
330
87
100
AcDbEntity
  8
0
100
AcDbBlockEnd
  0
BLOCK
  5
8F
330
8E
100
AcDbEntity
  8
0
100
AcDbBlockBegin
  2
*D8
 70
     1
 10
0.0
 20
0.0
 30
0.0
  3
*D8
  1

  0
TEXT
  5
90
330
8E
100
AcDbEntity
  8
CSLAYER1
 62
     4
100
AcDbText
 10
44.17011399999998
 20
152.0068959999998
 30
0.0
 40
3.0
  1
45%%d
 50
337.4999998658598
 41
1.285714319030602
 51
15.0
  7
FX_FONT
 72
     5
 11
52.48503
 21
148.562745
 31
0.0
100
AcDbText
  0
ARC
  5
91
330
8E
100
AcDbEntity
  8
CSLAYER1
  6
CONTINUOUS
 62
     4
100
AcDbCircle
 10
38.93121
 20
127.6
 30
0.0
 40
23.55387299999998
100
AcDbArc
 50
45.0
 51
90.0
  0
LINE
  5
92
330
8E
100
AcDbEntity
  8
CSLAYER1
  6
CONTINUOUS
 62
     4
100
AcDbLine
 10
55.586313
 20
144.255104
 30
0.0
 11
52.98823699999999
 21
145.755104
 31
0.0
  0
LINE
  5
93
330
8E
100
AcDbEntity
  8
CSLAYER1
  6
CONTINUOUS
 62
     4
100
AcDbLine
 10
55.586313
 20
144.255104
 30
0.0
 11
54.08631299999999
 21
146.85318
 31
0.0
  0
LINE
  5
94
330
8E
100
AcDbEntity
  8
CSLAYER1
  6
CONTINUOUS
 62
     4
100
AcDbLine
 10
38.93121
 20
151.153873
 30
0.0
 11
41.82898699999999
 21
151.9303299999999
 31
0.0
  0
LINE
  5
95
330
8E
100
AcDbEntity
  8
CSLAYER1
  6
CONTINUOUS
 62
     4
100
AcDbLine
 10
38.93121
 20
151.153873
 30
0.0
 11
41.82898699999999
 21
150.3774159999998
 31
0.0
  0
LINE
  5
96
330
8E
100
AcDbEntity
  8
CSLAYER1
  6
CONTINUOUS
 62
     4
100
AcDbLine
 10
52.238316
 20
140.9071069999999
 30
0.0
 11
56.29342
 21
144.96221
 31
0.0
  0
ENDBLK
  5
97
330
8E
100
AcDbEntity
  8
0
100
AcDbBlockEnd
  0
BLOCK
  5
99
330
98
100
AcDbEntity
  8
0
100
AcDbBlockBegin
  2
*D9
 70
     1
 10
0.0
 20
0.0
 30
0.0
  3
*D9
  1

  0
TEXT
  5
9A
330
98
100
AcDbEntity
  8
CSLAYER1
 62
     4
100
AcDbText
 10
26.38149099999999
 20
126.119633
 30
0.0
 40
3.0
  1
60%%d
 50
300.0000020182755
 41
1.285714207269711
 51
15.0
  7
FX_FONT
 72
     5
 11
30.88149099999998
 21
118.325405
 31
0.0
100
AcDbText
  0
ARC
  5
9B
330
98
100
AcDbEntity
  8
CSLAYER1
  6
CONTINUOUS
 62
     4
100
AcDbCircle
 10
39.33120999999999
 20
128.4
 30
0.0
 40
13.35497099999999
100
AcDbArc
 50
180.0
 51
239.9999999999999
  0
LINE
  5
9C
330
98
100
AcDbEntity
  8
CSLAYER1
  6
CONTINUOUS
 62
     4
100
AcDbLine
 10
25.976238
 20
128.4
 30
0.0
 11
25.199781
 21
125.502223
 31
0.0
  0
LINE
  5
9D
330
98
100
AcDbEntity
  8
CSLAYER1
  6
CONTINUOUS
 62
     4
100
AcDbLine
 10
25.976238
 20
128.4
 30
0.0
 11
26.752695
 21
125.502223
 31
0.0
  0
LINE
  5
9E
330
98
100
AcDbEntity
  8
CSLAYER1
  6
CONTINUOUS
 62
     4
100
AcDbLine
 10
32.65372399999999
 20
116.834256
 30
0.0
 11
29.755946
 21
117.6107129999999
 31
0.0
  0
LINE
  5
9F
330
98
100
AcDbEntity
  8
CSLAYER1
  6
CONTINUOUS
 62
     4
100
AcDbLine
 10
32.65372399999999
 20
116.834256
 30
0.0
 11
30.53240399999999
 21
118.955576
 31
0.0
  0
LINE
  5
A0
330
98
100
AcDbEntity
  8
CSLAYER1
  6
CONTINUOUS
 62
     4
100
AcDbLine
 10
34.117133
 20
128.4
 30
0.0
 11
24.976238
 21
128.4
 31
0.0
  0
LINE
  5
A1
330
98
100
AcDbEntity
  8
CSLAYER1
  6
CONTINUOUS
 62
     4
100
AcDbLine
 10
38.43384099999999
 20
126.8457129999999
 30
0.0
 11
32.15372399999999
 21
115.96823
 31
0.0
  0
ENDBLK
  5
A2
330
98
100
AcDbEntity
  8
0
100
AcDbBlockEnd
  0
BLOCK
  5
A4
330
A3
100
AcDbEntity
  8
0
100
AcDbBlockBegin
  2
*D10
 70
     1
 10
0.0
 20
0.0
 30
0.0
  3
*D10
  1

  0
TEXT
  5
A5
330
A3
100
AcDbEntity
  8
CSLAYER1
 62
     4
100
AcDbText
 10
36.482357
 20
115.563358
 30
0.0
 40
3.0
  1
75%%d
 50
7.500001498516531
 41
1.285714325823107
 51
15.0
  7
FX_FONT
 72
     5
 11
45.40536099999999
 21
116.7380939999999
 31
0.0
100
AcDbText
  0
ARC
  5
A6
330
A3
100
AcDbEntity
  8
CSLAYER1
  6
CONTINUOUS
 62
     4
100
AcDbCircle
 10
39.33120999999999
 20
128.4
 30
0.0
 40
13.35497099999999
100
AcDbArc
 50
239.9999999999999
 51
315.0
  0
LINE
  5
A7
330
A3
100
AcDbEntity
  8
CSLAYER1
  6
CONTINUOUS
 62
     4
100
AcDbLine
 10
32.65372399999999
 20
116.834256
 30
0.0
 11
35.551501
 21
116.057798
 31
0.0
  0
LINE
  5
A8
330
A3
100
AcDbEntity
  8
CSLAYER1
  6
CONTINUOUS
 62
     4
100
AcDbLine
 10
32.65372399999999
 20
116.834256
 30
0.0
 11
34.775044
 21
114.712935
 31
0.0
  0
LINE
  5
A9
330
A3
100
AcDbEntity
  8
CSLAYER1
  6
CONTINUOUS
 62
     4
100
AcDbLine
 10
48.7746
 20
118.956609
 30
0.0
 11
47.27459999999999
 21
116.358533
 31
0.0
  0
LINE
  5
AA
330
A3
100
AcDbEntity
  8
CSLAYER1
  6
CONTINUOUS
 62
     4
100
AcDbLine
 10
48.7746
 20
118.956609
 30
0.0
 11
46.17652399999999
 21
117.456609
 31
0.0
  0
ENDBLK
  5
AB
330
A3
100
AcDbEntity
  8
0
100
AcDbBlockEnd
  0
BLOCK
  5
AD
330
AC
100
AcDbEntity
  8
0
100
AcDbBlockBegin
  2
*D11
 70
     1
 10
0.0
 20
0.0
 30
0.0
  3
*D11
  1

  0
TEXT
  5
AE
330
AC
100
AcDbEntity
  8
CSLAYER1
 62
     4
100
AcDbText
 10
21.81861099999998
 20
134.990311
 30
0.0
 40
3.0
  1
(0.4)
 41
1.153846153846153
 51
15.0
  7
FX_FONT
 72
     5
 11
36.81861099999997
 21
134.990311
 31
0.0
100
AcDbText
  0
LINE
  5
AF
330
AC
100
AcDbEntity
  8
CSLAYER1
  6
CONTINUOUS
 62
     4
100
AcDbLine
 10
33.34090599999999
 20
133.990303
 30
0.0
 11
34.140906
 21
133.990303
 31
0.0
  0
LINE
  5
B0
330
AC
100
AcDbEntity
  8
CSLAYER1
  6
CONTINUOUS
 62
     4
100
AcDbLine
 10
38.22410299999999
 20
129.107107
 30
0.0
 11
32.63379899999999
 21
134.69741
 31
0.0
  0
LINE
  5
B1
330
AC
100
AcDbEntity
  8
CSLAYER1
  6
CONTINUOUS
 62
     4
100
AcDbLine
 10
39.024103
 20
129.107107
 30
0.0
 11
33.433799
 21
134.69741
 31
0.0
  0
LINE
  5
B2
330
AC
100
AcDbEntity
  8
CSLAYER1
  6
CONTINUOUS
 62
     4
100
AcDbLine
 10
25.296314
 20
133.990303
 30
0.0
 11
33.34090599999999
 21
133.990303
 31
0.0
  0
LINE
  5
B3
330
AC
100
AcDbEntity
  8
CSLAYER1
  6
CONTINUOUS
 62
     4
100
AcDbLine
 10
33.34090599999999
 20
133.990303
 30
0.0
 11
30.44312899999999
 21
134.76676
 31
0.0
  0
LINE
  5
B4
330
AC
100
AcDbEntity
  8
CSLAYER1
  6
CONTINUOUS
 62
     4
100
AcDbLine
 10
33.34090599999999
 20
133.990303
 30
0.0
 11
30.44312899999999
 21
133.2138459999999
 31
0.0
  0
LINE
  5
B5
330
AC
100
AcDbEntity
  8
CSLAYER1
  6
CONTINUOUS
 62
     4
100
AcDbLine
 10
34.140906
 20
133.990303
 30
0.0
 11
37.496425
 21
133.990303
 31
0.0
  0
LINE
  5
B6
330
AC
100
AcDbEntity
  8
CSLAYER1
  6
CONTINUOUS
 62
     4
100
AcDbLine
 10
34.140906
 20
133.990303
 30
0.0
 11
37.038684
 21
134.76676
 31
0.0
  0
LINE
  5
B7
330
AC
100
AcDbEntity
  8
CSLAYER1
  6
CONTINUOUS
 62
     4
100
AcDbLine
 10
34.140906
 20
133.990303
 30
0.0
 11
37.038684
 21
133.2138459999999
 31
0.0
  0
ENDBLK
  5
B8
330
AC
100
AcDbEntity
  8
0
100
AcDbBlockEnd
  0
BLOCK
  5
BA
330
B9
100
AcDbEntity
  8
0
100
AcDbBlockBegin
  2
*D12
 70
     1
 10
0.0
 20
0.0
 30
0.0
  3
*D12
  1

  0
TEXT
  5
BB
330
B9
100
AcDbEntity
  8
CSLAYER1
 62
     4
100
AcDbText
 10
89.34072099999999
 20
67.20719100000001
 30
0.0
 40
3.0
  1
7  
 50
90.0
 41
1.363636363636365
 51
15.0
  7
FX_FONT
 72
     5
 11
89.34072099999999
 21
76.20719100000002
 31
0.0
100
AcDbText
  0
TEXT
  5
BC
330
B9
100
AcDbEntity
  8
CSLAYER1
 62
     4
100
AcDbText
 10
87.84072100000001
 20
76.20719100000002
 30
0.0
 40
1.5
  1
  0
 50
90.0
 41
1.607142857142857
 51
15.0
  7
FX_FONT
 72
     5
 11
87.84072100000001
 21
80.70719100000003
 31
0.0
100
AcDbText
  0
TEXT
  5
BD
330
B9
100
AcDbEntity
  8
CSLAYER1
 62
     4
100
AcDbText
 10
89.34072099999999
 20
76.20719100000002
 30
0.0
 40
1.5
  1
-0.15
 50
90.0
 41
1.071428571428569
 51
15.0
  7
FX_FONT
 72
     5
 11
89.34072099999999
 21
83.707191
 31
0.0
100
AcDbText
  0
LINE
  5
BE
330
B9
100
AcDbEntity
  8
CSLAYER1
  6
CONTINUOUS
 62
     4
100
AcDbLine
 10
90.340722
 20
61.4
 30
0.0
 11
90.340722
 21
75.4
 31
0.0
  0
LINE
  5
BF
330
B9
100
AcDbEntity
  8
CSLAYER1
  6
CONTINUOUS
 62
     4
100
AcDbLine
 10
90.340722
 20
61.4
 30
0.0
 11
89.564265
 21
64.29777699999999
 31
0.0
  0
LINE
  5
C0
330
B9
100
AcDbEntity
  8
CSLAYER1
  6
CONTINUOUS
 62
     4
100
AcDbLine
 10
90.340722
 20
61.4
 30
0.0
 11
91.11718000000001
 21
64.29777699999999
 31
0.0
  0
LINE
  5
C1
330
B9
100
AcDbEntity
  8
CSLAYER1
  6
CONTINUOUS
 62
     4
100
AcDbLine
 10
90.340722
 20
75.4
 30
0.0
 11
89.564265
 21
72.502223
 31
0.0
  0
LINE
  5
C2
330
B9
100
AcDbEntity
  8
CSLAYER1
  6
CONTINUOUS
 62
     4
100
AcDbLine
 10
90.340722
 20
75.4
 30
0.0
 11
91.11718000000001
 21
72.502223
 31
0.0
  0
LINE
  5
C3
330
B9
100
AcDbEntity
  8
CSLAYER1
  6
CONTINUOUS
 62
     4
100
AcDbLine
 10
125.8
 20
61.4
 30
0.0
 11
89.34072200000001
 21
61.4
 31
0.0
  0
LINE
  5
C4
330
B9
100
AcDbEntity
  8
CSLAYER1
  6
CONTINUOUS
 62
     4
100
AcDbLine
 10
98.8
 20
75.4
 30
0.0
 11
89.34072200000001
 21
75.4
 31
0.0
  0
ENDBLK
  5
C5
330
B9
100
AcDbEntity
  8
0
100
AcDbBlockEnd
  0
BLOCK
  5
C7
330
C6
100
AcDbEntity
  8
0
100
AcDbBlockBegin
  2
*D13
 70
     1
 10
0.0
 20
0.0
 30
0.0
  3
*D13
  1

  0
TEXT
  5
C8
330
C6
100
AcDbEntity
  8
CSLAYER1
 62
     4
100
AcDbText
 10
39.19929099999999
 20
29.61132
 30
0.0
 40
3.0
  1
4
 50
90.0
 41
1.499999999999994
 51
15.0
  7
FX_FONT
 72
     5
 11
39.19929099999999
 21
32.61131999999999
 31
0.0
100
AcDbText
  0
LINE
  5
C9
330
C6
100
AcDbEntity
  8
CSLAYER1
  6
CONTINUOUS
 62
     4
100
AcDbLine
 10
40.19929099999997
 20
27.111321
 30
0.0
 11
40.19929099999997
 21
35.111321
 31
0.0
  0
LINE
  5
CA
330
C6
100
AcDbEntity
  8
CSLAYER1
  6
CONTINUOUS
 62
     4
100
AcDbLine
 10
40.19929099999997
 20
27.111321
 30
0.0
 11
39.422834
 21
30.00909899999999
 31
0.0
  0
LINE
  5
CB
330
C6
100
AcDbEntity
  8
CSLAYER1
  6
CONTINUOUS
 62
     4
100
AcDbLine
 10
40.19929099999997
 20
27.111321
 30
0.0
 11
40.97574799999999
 21
30.00909899999999
 31
0.0
  0
LINE
  5
CC
330
C6
100
AcDbEntity
  8
CSLAYER1
  6
CONTINUOUS
 62
     4
100
AcDbLine
 10
40.19929099999997
 20
35.111321
 30
0.0
 11
39.422834
 21
32.213544
 31
0.0
  0
LINE
  5
CD
330
C6
100
AcDbEntity
  8
CSLAYER1
  6
CONTINUOUS
 62
     4
100
AcDbLine
 10
40.19929099999997
 20
35.111321
 30
0.0
 11
40.97574799999999
 21
32.213544
 31
0.0
  0
LINE
  5
CE
330
C6
100
AcDbEntity
  8
CSLAYER1
  6
CONTINUOUS
 62
     4
100
AcDbLine
 10
51.106733
 20
27.111321
 30
0.0
 11
39.19929099999999
 21
27.111321
 31
0.0
  0
LINE
  5
CF
330
C6
100
AcDbEntity
  8
CSLAYER1
  6
CONTINUOUS
 62
     4
100
AcDbLine
 10
51.106733
 20
35.111321
 30
0.0
 11
39.19929099999999
 21
35.111321
 31
0.0
  0
ENDBLK
  5
D0
330
C6
100
AcDbEntity
  8
0
100
AcDbBlockEnd
  0
BLOCK
  5
D2
330
D1
100
AcDbEntity
  8
0
100
AcDbBlockBegin
  2
*D14
 70
     1
 10
0.0
 20
0.0
 30
0.0
  3
*D14
  1

  0
TEXT
  5
D3
330
D1
100
AcDbEntity
  8
CSLAYER1
 62
     4
100
AcDbText
 10
120.800003
 20
163.917511
 30
0.0
 40
3.0
  1
24
 41
1.2
 51
15.0
  7
FX_FONT
 72
     5
 11
126.800003
 21
163.917511
 31
0.0
100
AcDbText
  0
LINE
  5
D4
330
D1
100
AcDbEntity
  8
CSLAYER1
  6
CONTINUOUS
 62
     4
100
AcDbLine
 10
99.8
 20
162.917517
 30
0.0
 11
147.8
 21
162.917517
 31
0.0
  0
LINE
  5
D5
330
D1
100
AcDbEntity
  8
CSLAYER1
  6
CONTINUOUS
 62
     4
100
AcDbLine
 10
99.8
 20
162.917517
 30
0.0
 11
102.697777
 21
163.693974
 31
0.0
  0
LINE
  5
D6
330
D1
100
AcDbEntity
  8
CSLAYER1
  6
CONTINUOUS
 62
     4
100
AcDbLine
 10
99.8
 20
162.917517
 30
0.0
 11
102.697777
 21
162.14106
 31
0.0
  0
LINE
  5
D7
330
D1
100
AcDbEntity
  8
CSLAYER1
  6
CONTINUOUS
 62
     4
100
AcDbLine
 10
147.8
 20
162.917517
 30
0.0
 11
144.9022229999999
 21
163.693974
 31
0.0
  0
LINE
  5
D8
330
D1
100
AcDbEntity
  8
CSLAYER1
  6
CONTINUOUS
 62
     4
100
AcDbLine
 10
147.8
 20
162.917517
 30
0.0
 11
144.9022229999999
 21
162.14106
 31
0.0
  0
LINE
  5
D9
330
D1
100
AcDbEntity
  8
CSLAYER1
  6
CONTINUOUS
 62
     4
100
AcDbLine
 10
99.8
 20
131.436682
 30
0.0
 11
99.8
 21
163.917517
 31
0.0
  0
LINE
  5
DA
330
D1
100
AcDbEntity
  8
CSLAYER1
  6
CONTINUOUS
 62
     4
100
AcDbLine
 10
147.8
 20
150.7129439999999
 30
0.0
 11
147.8
 21
163.917517
 31
0.0
  0
ENDBLK
  5
DB
330
D1
100
AcDbEntity
  8
0
100
AcDbBlockEnd
  0
BLOCK
  5
DD
330
DC
100
AcDbEntity
  8
0
100
AcDbBlockBegin
  2
*D15
 70
     1
 10
0.0
 20
0.0
 30
0.0
  3
*D15
  1

  0
TEXT
  5
DE
330
DC
100
AcDbEntity
  8
CSLAYER1
 62
     4
100
AcDbText
 10
94.17416000000001
 20
58.37633499999999
 30
0.0
 40
3.0
  1
切刃部有効12
 50
334.9999981465591
 41
0.9130434667149293
 51
15.0
  7
FX_FONT
 72
     5
 11
113.2066229999999
 21
49.501351
 31
0.0
100
AcDbText
  0
LINE
  5
DF
330
DC
100
AcDbEntity
  8
CSLAYER1
  6
CONTINUOUS
 62
     4
100
AcDbLine
 10
92.39207099999999
 20
58.103952
 30
0.0
 11
114.143458
 21
47.961114
 31
0.0
  0
LINE
  5
E0
330
DC
100
AcDbEntity
  8
CSLAYER1
  6
CONTINUOUS
 62
     4
100
AcDbLine
 10
92.39207099999999
 20
58.103952
 30
0.0
 11
95.34649400000001
 21
57.58300699999999
 31
0.0
  0
LINE
  5
E1
330
DC
100
AcDbEntity
  8
CSLAYER1
  6
CONTINUOUS
 62
     4
100
AcDbLine
 10
92.39207099999999
 20
58.103952
 30
0.0
 11
94.69020399999999
 21
56.175589
 31
0.0
  0
LINE
  5
E2
330
DC
100
AcDbEntity
  8
CSLAYER1
  6
CONTINUOUS
 62
     4
100
AcDbLine
 10
114.143458
 20
47.961114
 30
0.0
 11
111.189035
 21
48.482058
 31
0.0
  0
LINE
  5
E3
330
DC
100
AcDbEntity
  8
CSLAYER1
  6
CONTINUOUS
 62
     4
100
AcDbLine
 10
114.143458
 20
47.961114
 30
0.0
 11
111.8453249999999
 21
49.889476
 31
0.0
  0
LINE
  5
E4
330
DC
100
AcDbEntity
  8
CSLAYER1
  6
CONTINUOUS
 62
     4
100
AcDbLine
 10
99.377382
 20
73.08399900000002
 30
0.0
 11
91.96945300000001
 21
57.19764399999998
 31
0.0
  0
LINE
  5
E5
330
DC
100
AcDbEntity
  8
CSLAYER1
  6
CONTINUOUS
 62
     4
100
AcDbLine
 10
121.128769
 20
62.941161
 30
0.0
 11
113.72084
 21
47.054806
 31
0.0
  0
ENDBLK
  5
E6
330
DC
100
AcDbEntity
  8
0
100
AcDbBlockEnd
  0
BLOCK
  5
E8
330
E7
100
AcDbEntity
  8
0
100
AcDbBlockBegin
  2
*D16
 70
     1
 10
0.0
 20
0.0
 30
0.0
  3
*D16
  1

  0
TEXT
  5
E9
330
E7
100
AcDbEntity
  8
CSLAYER1
 62
     4
100
AcDbText
 10
50.945869
 20
137.3364139999999
 30
0.0
 40
3.0
  1
R45
 50
354.1928693586524
 41
1.124999985032012
 51
15.0
  7
FX_FONT
 72
     5
 11
59.89968199999999
 21
136.4257929999999
 31
0.0
100
AcDbText
  0
LINE
  5
EA
330
E7
100
AcDbEntity
  8
CSLAYER1
  6
CONTINUOUS
 62
     4
100
AcDbLine
 10
39.393078
 20
137.5062039999999
 30
0.0
 11
71.250113
 21
134.2662809999999
 31
0.0
  0
LINE
  5
EB
330
E7
100
AcDbEntity
  8
CSLAYER1
  6
CONTINUOUS
 62
     4
100
AcDbLine
 10
39.393078
 20
137.5062039999999
 30
0.0
 11
42.35454599999999
 21
137.9854789999999
 31
0.0
  0
LINE
  5
EC
330
E7
100
AcDbEntity
  8
CSLAYER1
  6
CONTINUOUS
 62
     4
100
AcDbLine
 10
39.393078
 20
137.5062039999999
 30
0.0
 11
42.19742199999998
 21
136.440534
 31
0.0
  0
ENDBLK
  5
ED
330
E7
100
AcDbEntity
  8
0
100
AcDbBlockEnd
  0
BLOCK
  5
1A4
330
198
100
AcDbEntity
  8
0
100
AcDbBlockBegin
  2
*D17
 70
     1
 10
0.0
 20
0.0
 30
0.0
  3
*D17
  1

  0
LINE
  5
199
330
198
100
AcDbEntity
  8
CSLAYER1
 62
     0
100
AcDbLine
 10
109.3671367608342
 20
69.52907763604901
 30
0.0
 11
109.2606453969039
 21
69.57873536242407
 31
0.0
  0
ARC
  5
19A
330
198
100
AcDbEntity
  8
CSLAYER1
 62
     0
100
AcDbCircle
 10
126.7999999999997
 20
61.4
 30
0.0
 40
19.17253657848789
100
AcDbArc
 50
155.537919309771
 51
166.9484251476227
  0
ARC
  5
19B
330
198
100
AcDbEntity
  8
CSLAYER1
 62
     0
100
AcDbCircle
 10
126.7999999999997
 20
61.4
 30
0.0
 40
19.17253657848789
100
AcDbArc
 50
168.0504001067703
 51
179.4620806617317
  0
SOLID
  5
19C
330
198
100
AcDbEntity
  8
CSLAYER1
 62
     0
100
AcDbTrace
 10
109.3212276993654
 20
69.35172416751803
 30
0.0
 11
109.3757245990867
 21
69.32662261535964
 31
0.0
 12
109.4237808057012
 22
69.50266409060289
 32
0.0
 13
109.4237808057012
 23
69.50266409060289
 33
0.0
  0
SOLID
  5
19D
330
198
100
AcDbEntity
  8
CSLAYER1
 62
     0
100
AcDbTrace
 10
107.6583080495929
 20
61.57985719034437
 30
0.0
 11
107.598308710666
 21
61.58013884321685
 31
0.0
 12
107.6274634215119
 22
61.40000000000005
 32
0.0
 13
107.6274634215119
 23
61.40000000000005
 33
0.0
  0
MTEXT
  5
19E
330
198
100
AcDbEntity
  8
CSLAYER1
 62
     0
100
AcDbMText
 10
108.0819290930932
 20
65.54969641991696
 30
0.0
 40
0.18
 41
0.0
 71
     5
 72
     1
  1
\A1;25°
1001
ACAD
1000
MTEXTBEGIN
1070
    73
1070
     1
1070
    44
1040
1.0
1070
    74
1070
     0
1000
MTEXTEND
1000
MTEXTBEGIN
1070
    73
1070
     1
1070
    44
1040
1.0
1070
    74
1070
     0
1000
MTEXTEND
  0
POINT
  5
19F
330
198
100
AcDbEntity
  8
DEFPOINTS
 62
     0
100
AcDbPoint
 10
108.4329110351466
 20
66.89874547607209
 30
0.0
  0
POINT
  5
1A0
330
198
100
AcDbEntity
  8
DEFPOINTS
 62
     0
100
AcDbPoint
 10
126.7999999999997
 20
61.4
 30
0.0
  0
POINT
  5
1A1
330
198
100
AcDbEntity
  8
DEFPOINTS
 62
     0
100
AcDbPoint
 10
107.6274629999999
 20
61.39999999999999
 30
0.0
  0
POINT
  5
1A2
330
198
100
AcDbEntity
  8
DEFPOINTS
 62
     0
100
AcDbPoint
 10
126.7999999999997
 20
61.4
 30
0.0
  0
POINT
  5
1A3
330
198
100
AcDbEntity
  8
DEFPOINTS
 62
     0
100
AcDbPoint
 10
109.4237809999997
 20
69.502664
 30
0.0
  0
ENDBLK
  5
1A5
330
198
100
AcDbEntity
  8
0
100
AcDbBlockEnd
  0
BLOCK
  5
1B2
330
1A6
100
AcDbEntity
  8
0
100
AcDbBlockBegin
  2
*D18
 70
     1
 10
0.0
 20
0.0
 30
0.0
  3
*D18
  1

  0
LINE
  5
1A7
330
1A6
100
AcDbEntity
  8
CSLAYER1
 62
     0
100
AcDbLine
 10
51.57540417382413
 20
140.244194173824
 30
0.0
 11
55.7135924365323
 21
144.3823824365322
 31
0.0
  0
ARC
  5
1A8
330
1A6
100
AcDbEntity
  8
CSLAYER1
 62
     0
100
AcDbCircle
 10
38.93120999999999
 20
127.6
 30
0.0
 40
23.55387285067596
100
AcDbArc
 50
45.43785858376177
 51
66.50108212934599
  0
ARC
  5
1A9
330
1A6
100
AcDbEntity
  8
CSLAYER1
 62
     0
100
AcDbCircle
 10
38.93120999999999
 20
127.6
 30
0.0
 40
23.55387285067596
100
AcDbArc
 50
68.49175476069993
 51
89.56214141623801
  0
SOLID
  5
1AA
330
1A6
100
AcDbEntity
  8
CSLAYER1
 62
     0
100
AcDbTrace
 10
55.47968057937715
 20
144.4031892747634
 30
0.0
 11
55.43741659470001
 21
144.3606010651365
 31
0.0
 12
55.58631321591871
 22
144.2551032159186
 32
0.0
 13
55.58631321591871
 23
144.2551032159186
 33
0.0
  0
SOLID
  5
1AB
330
1A6
100
AcDbEntity
  8
CSLAYER1
 62
     0
100
AcDbTrace
 10
39.11109405514227
 20
151.1231852846989
 30
0.0
 11
39.11132331680274
 21
151.1831848466899
 31
0.0
 12
38.93121000000002
 22
151.1538728506758
 32
0.0
 13
38.93121000000002
 23
151.1538728506758
 33
0.0
  0
MTEXT
  5
1AC
330
1A6
100
AcDbEntity
  8
CSLAYER1
 62
     0
100
AcDbMText
 10
47.9448869079876
 20
149.3609410381125
 30
0.0
 40
0.18
 41
0.0
 71
     5
 72
     1
  1
\A1;45°
1001
ACAD
1000
MTEXTBEGIN
1070
    73
1070
     1
1070
    44
1040
1.0
1070
    74
1070
     0
1000
MTEXTEND
1000
MTEXTBEGIN
1070
    73
1070
     1
1070
    44
1040
1.0
1070
    74
1070
     0
1000
MTEXTEND
  0
POINT
  5
1AD
330
1A6
100
AcDbEntity
  8
DEFPOINTS
 62
     0
100
AcDbPoint
 10
50.708146425338
 20
147.9982522461939
 30
0.0
  0
POINT
  5
1AE
330
1A6
100
AcDbEntity
  8
DEFPOINTS
 62
     0
100
AcDbPoint
 10
39.73120999999999
 20
128.4
 30
0.0
  0
POINT
  5
1AF
330
1A6
100
AcDbEntity
  8
DEFPOINTS
 62
     0
100
AcDbPoint
 10
38.93121
 20
151.8706289999999
 30
0.0
  0
POINT
  5
1B0
330
1A6
100
AcDbEntity
  8
DEFPOINTS
 62
     0
100
AcDbPoint
 10
38.93120999999999
 20
128.4
 30
0.0
  0
POINT
  5
1B1
330
1A6
100
AcDbEntity
  8
DEFPOINTS
 62
     0
100
AcDbPoint
 10
51.53120999999998
 20
140.1999999999999
 30
0.0
  0
ENDBLK
  5
1B3
330
1A6
100
AcDbEntity
  8
0
100
AcDbBlockEnd
  0
BLOCK
  5
1C1
330
1B4
100
AcDbEntity
  8
0
100
AcDbBlockBegin
  2
*D19
 70
     1
 10
0.0
 20
0.0
 30
0.0
  3
*D19
  1

  0
LINE
  5
1B5
330
1B4
100
AcDbEntity
  8
CSLAYER1
 62
     0
100
AcDbLine
 10
35.05463300000001
 20
128.4
 30
0.0
 11
25.79623801630714
 21
128.3999999999997
 31
0.0
  0
LINE
  5
1B6
330
1B4
100
AcDbEntity
  8
CSLAYER1
 62
     0
100
AcDbLine
 10
38.90259095582104
 20
127.6576114377702
 30
0.0
 11
32.56371444078208
 21
116.678375946341
 31
0.0
  0
ARC
  5
1B7
330
1B4
100
AcDbEntity
  8
CSLAYER1
 62
     0
100
AcDbCircle
 10
39.33121000000001
 20
128.4
 30
0.0
 40
13.35497198369287
100
AcDbArc
 50
180.7722456017978
 51
209.112206449152
  0
ARC
  5
1B8
330
1B4
100
AcDbEntity
  8
CSLAYER1
 62
     0
100
AcDbCircle
 10
39.33121000000001
 20
128.4
 30
0.0
 40
13.35497198369287
100
AcDbArc
 50
210.8957613865892
 51
239.2277076325087
  0
SOLID
  5
1B9
330
1B4
100
AcDbEntity
  8
CSLAYER1
 62
     0
100
AcDbTrace
 10
25.94745172891233
 20
128.2198019154984
 30
0.0
 11
26.00745036644767
 21
128.2202062592894
 31
0.0
 12
25.97623801630714
 22
128.3999999999997
 32
0.0
 13
25.97623801630714
 23
128.3999999999997
 33
0.0
  0
SOLID
  5
1BA
330
1B4
100
AcDbEntity
  8
CSLAYER1
 62
     0
100
AcDbTrace
 10
32.51361489162899
 20
116.9511881184031
 30
0.0
 11
32.48326535862069
 21
116.8994299707722
 31
0.0
 12
32.65371456801741
 22
116.8342604455627
 32
0.0
 13
32.65371456801741
 23
116.8342604455627
 33
0.0
  0
MTEXT
  5
1BB
330
1B4
100
AcDbEntity
  8
CSLAYER1
 62
     0
100
AcDbMText
 10
27.76546227016027
 20
121.7225187282233
 30
0.0
 40
0.18
 41
0.0
 71
     5
 72
     1
  1
\A1;60°
1001
ACAD
1000
MTEXTBEGIN
1070
    73
1070
     1
1070
    44
1040
1.0
1070
    74
1070
     0
1000
MTEXTEND
1000
MTEXTBEGIN
1070
    73
1070
     1
1070
    44
1040
1.0
1070
    74
1070
     0
1000
MTEXTEND
  0
POINT
  5
1BC
330
1B4
100
AcDbEntity
  8
DEFPOINTS
 62
     0
100
AcDbPoint
 10
26.78164013338781
 20
123.8323339824106
 30
0.0
  0
POINT
  5
1BD
330
1B4
100
AcDbEntity
  8
DEFPOINTS
 62
     0
100
AcDbPoint
 10
38.93121000000002
 20
128.4
 30
0.0
  0
POINT
  5
1BE
330
1B4
100
AcDbEntity
  8
DEFPOINTS
 62
     0
100
AcDbPoint
 10
38.93384099999996
 20
127.7117379999999
 30
0.0
  0
POINT
  5
1BF
330
1B4
100
AcDbEntity
  8
DEFPOINTS
 62
     0
100
AcDbPoint
 10
39.33121000000001
 20
128.4
 30
0.0
  0
POINT
  5
1C0
330
1B4
100
AcDbEntity
  8
DEFPOINTS
 62
     0
100
AcDbPoint
 10
35.11713300000001
 20
128.4
 30
0.0
  0
ENDBLK
  5
1C2
330
1B4
100
AcDbEntity
  8
0
100
AcDbBlockEnd
  0
BLOCK
  5
1CF
330
1C3
100
AcDbEntity
  8
0
100
AcDbBlockBegin
  2
*D20
 70
     1
 10
0.0
 20
0.0
 30
0.0
  3
*D20
  1

  0
LINE
  5
1C4
330
1C3
100
AcDbEntity
  8
CSLAYER1
 62
     0
100
AcDbLine
 10
38.90259095582104
 20
127.6576114377701
 30
0.0
 11
32.56371465459388
 21
116.6783763166723
 31
0.0
  0
ARC
  5
1C5
330
1C3
100
AcDbEntity
  8
CSLAYER1
 62
     0
100
AcDbCircle
 10
39.33120999999996
 20
128.4
 30
0.0
 40
13.35497155607054
100
AcDbArc
 50
240.7721988608332
 51
275.8671214878566
  0
ARC
  5
1C6
330
1C3
100
AcDbEntity
  8
CSLAYER1
 62
     0
100
AcDbCircle
 10
39.33120999999996
 20
128.4
 30
0.0
 40
13.35497155607054
100
AcDbArc
 50
279.1389832898643
 51
314.2277543734749
  0
SOLID
  5
1C7
330
1C3
100
AcDbEntity
  8
CSLAYER1
 62
     0
100
AcDbTrace
 10
32.79537766316003
 20
116.719232001882
 30
0.0
 11
32.82502685249745
 21
116.7713944938818
 31
0.0
 12
32.6537147818292
 22
116.8342608158942
 32
0.0
 13
32.6537147818292
 23
116.8342608158942
 33
0.0
  0
SOLID
  5
1C8
330
1C3
100
AcDbEntity
  8
CSLAYER1
 62
     0
100
AcDbTrace
 10
48.62539711211574
 20
118.851546141351
 30
0.0
 11
48.6675366413332
 21
118.8088347836421
 31
0.0
 12
48.77460094985092
 22
118.9566090501489
 32
0.0
 13
48.77460094985092
 23
118.9566090501489
 33
0.0
  0
MTEXT
  5
1C9
330
1C3
100
AcDbEntity
  8
CSLAYER1
 62
     0
100
AcDbMText
 10
41.07437818078254
 20
115.159281365539
 30
0.0
 40
0.18
 41
0.0
 71
     5
 72
     1
  1
\A1;75°
1001
ACAD
1000
MTEXTBEGIN
1070
    73
1070
     1
1070
    44
1040
1.0
1070
    74
1070
     0
1000
MTEXTEND
1000
MTEXTBEGIN
1070
    73
1070
     1
1070
    44
1040
1.0
1070
    74
1070
     0
1000
MTEXTEND
  0
POINT
  5
1CA
330
1C3
100
AcDbEntity
  8
DEFPOINTS
 62
     0
100
AcDbPoint
 10
38.16724029528877
 20
115.0958487760408
 30
0.0
  0
POINT
  5
1CB
330
1C3
100
AcDbEntity
  8
DEFPOINTS
 62
     0
100
AcDbPoint
 10
39.33120999999998
 20
128.4
 30
0.0
  0
POINT
  5
1CC
330
1C3
100
AcDbEntity
  8
DEFPOINTS
 62
     0
100
AcDbPoint
 10
51.53120999999998
 20
116.1999999999999
 30
0.0
  0
POINT
  5
1CD
330
1C3
100
AcDbEntity
  8
DEFPOINTS
 62
     0
100
AcDbPoint
 10
39.33120999999998
 20
128.4
 30
0.0
  0
POINT
  5
1CE
330
1C3
100
AcDbEntity
  8
DEFPOINTS
 62
     0
100
AcDbPoint
 10
38.93384099999999
 20
127.7117379999999
 30
0.0
  0
ENDBLK
  5
1D0
330
1C3
100
AcDbEntity
  8
0
100
AcDbBlockEnd
  0
ENDSEC
  0
SECTION
  2
ENTITIES
  0
POINT
  5
F2
330
1E
100
AcDbEntity
  8
CSLAYER1
 62
     3
100
AcDbPoint
 10
124.3966665
 20
21.75
 30
0.0
  0
POINT
  5
F3
330
1E
100
AcDbEntity
  8
CSLAYER1
 62
     3
100
AcDbPoint
 10
135.4999999999999
 20
21.75
 30
0.0
  0
POINT
  5
F4
330
1E
100
AcDbEntity
  8
CSLAYER1
 62
     3
100
AcDbPoint
 10
135.4999999999999
 20
26.75
 30
0.0
  0
POINT
  5
F5
330
1E
100
AcDbEntity
  8
CSLAYER1
 62
     3
100
AcDbPoint
 10
125.2499999999999
 20
26.75
 30
0.0
  0
TEXT
  5
F6
330
1E
100
AcDbEntity
  8
CSLAYER1
 62
     3
100
AcDbText
 10
119.0499999999999
 20
25.5
 30
0.0
 40
2.5
  1
刃開キハ
 41
1.110447761194031
  7
FX_FONT
 72
     5
 11
131.45
 21
25.5
 31
0.0
100
AcDbText
  0
TEXT
  5
F7
330
1E
100
AcDbEntity
  8
CSLAYER1
 62
     3
100
AcDbText
 10
118.1466675
 20
20.5
 30
0.0
 40
2.5
  1
切刃部有効
 41
0.872093023255814
  7
FX_FONT
 72
     5
 11
130.6466675
 21
20.5
 31
0.0
100
AcDbText
  0
TEXT
  5
F8
330
1E
100
AcDbEntity
  8
CSLAYER1
 62
     3
100
AcDbText
 10
134.25
 20
25.5
 30
0.0
 40
2.5
  1
4
 41
1.499999999999982
  7
FX_FONT
 72
     5
 11
136.7499999999999
 21
25.5
 31
0.0
100
AcDbText
  0
TEXT
  5
F9
330
1E
100
AcDbEntity
  8
CSLAYER1
 62
     3
100
AcDbText
 10
133.0
 20
20.5
 30
0.0
 40
2.5
  1
12
 41
1.199999999999999
  7
FX_FONT
 72
     5
 11
138.0
 21
20.5
 31
0.0
100
AcDbText
  0
INSERT
  5
FA
330
1E
100
AcDbEntity
  8
CSLAYER1
100
AcDbBlockReference
  2
FXDIM0001
 10
0.0
 20
0.0
 30
0.0
 41
0.5
 42
0.5
 43
0.5
  0
INSERT
  5
FB
330
1E
100
AcDbEntity
  8
CSLAYER1
100
AcDbBlockReference
  2
FXDIM0002
 10
0.0
 20
0.0
 30
0.0
 41
0.5
 42
0.5
 43
0.5
  0
POINT
  5
FD
330
1E
100
AcDbEntity
  8
CSLAYER1
 62
     3
100
AcDbPoint
 10
2.5
 20
0.5
 30
0.0
  0
POINT
  5
FE
330
1E
100
AcDbEntity
  8
CSLAYER1
 62
     3
100
AcDbPoint
 10
126.5
 20
9.5
 30
0.0
  0
TEXT
  5
FF
330
1E
100
AcDbEntity
  8
CSLAYER1
 62
     3
100
AcDbText
 10
122.5
 20
8.5
 30
0.0
 40
2.0
  1
N5HS
 41
1.090909090909091
  7
FX_FONT
 72
     5
 11
130.4999999999999
 21
8.5
 31
0.0
100
AcDbText
  0
LINE
  5
100
330
1E
100
AcDbEntity
  8
CSLAYER1
  6
CONTINUOUS
 62
     3
100
AcDbLine
 10
118.1466665
 20
20.0
 30
0.0
 11
140.1733334999999
 21
20.0
 31
0.0
  0
LINE
  5
101
330
1E
100
AcDbEntity
  8
CSLAYER1
  6
CONTINUOUS
 62
     3
100
AcDbLine
 10
25.76560499999999
 20
70.09999999999995
 30
0.0
 11
19.86560499999999
 21
64.2
 31
0.0
  0
LINE
  5
102
330
1E
100
AcDbEntity
  8
CSLAYER1
  6
CONTINUOUS
 62
     3
100
AcDbLine
 10
19.86560499999999
 20
64.2
 30
0.0
 11
19.465605
 21
64.2
 31
0.0
  0
ARC
  5
103
330
1E
100
AcDbEntity
  8
CSLAYER1
  6
CONTINUOUS
 62
     3
100
AcDbCircle
 10
64.46560500000001
 20
64.2
 30
0.0
 40
45.0
100
AcDbArc
 50
169.7596519999999
 51
180.0
  0
ARC
  5
104
330
1E
100
AcDbEntity
  8
CSLAYER1
  6
CONTINUOUS
 62
     3
100
AcDbCircle
 10
64.46560500000001
 20
64.2
 30
0.0
 40
45.0
100
AcDbArc
 50
180.4381649999999
 51
190.240348
  0
LINE
  5
105
330
1E
100
AcDbEntity
  8
CSLAYER1
  6
CONTINUOUS
 62
     3
100
AcDbLine
 10
19.46692049999999
 20
63.85586899999996
 30
0.0
 11
19.66560499999999
 21
64.2
 31
0.0
  0
LINE
  5
106
330
1E
100
AcDbEntity
  8
CSLAYER1
  6
CONTINUOUS
 62
     3
100
AcDbLine
 10
19.66560499999999
 20
64.2
 30
0.0
 11
25.76560499999999
 21
58.1
 31
0.0
  0
LINE
  5
107
330
1E
100
AcDbEntity
  8
CSLAYER1
  6
CONTINUOUS
 62
     3
100
AcDbLine
 10
49.9
 20
65.21834100000001
 30
0.0
 11
49.9
 21
63.181659
 31
0.0
  0
ARC
  5
108
330
1E
100
AcDbEntity
  8
CSLAYER1
  6
CONTINUOUS
 62
     3
100
AcDbCircle
 10
63.55543599999995
 20
66.0
 30
0.0
 40
2.0
100
AcDbArc
 50
270.0
 51
350.12911
  0
ARC
  5
109
330
1E
100
AcDbEntity
  8
CSLAYER1
  6
CONTINUOUS
 62
     3
100
AcDbCircle
 10
63.55543599999995
 20
62.39999999999994
 30
0.0
 40
2.0
100
AcDbArc
 50
64.158067
 51
90.0
  0
LINE
  5
10A
330
1E
100
AcDbEntity
  8
CSLAYER1
  6
CONTINUOUS
 62
     3
100
AcDbLine
 10
63.55543599999995
 20
64.40000000000001
 30
0.0
 11
60.7756935
 21
64.40000000000001
 31
0.0
  0
LINE
  5
10B
330
1E
100
AcDbEntity
  8
CSLAYER1
  6
CONTINUOUS
 62
     3
100
AcDbLine
 10
60.7756935
 20
64.0
 30
0.0
 11
63.55543599999995
 21
64.0
 31
0.0
  0
LINE
  5
10C
330
1E
100
AcDbEntity
  8
CSLAYER1
  6
CONTINUOUS
 62
     3
100
AcDbLine
 10
49.9
 20
64.2
 30
0.0
 11
60.7756935
 21
64.2
 31
0.0
  0
LINE
  5
10D
330
1E
100
AcDbEntity
  8
CSLAYER1
  6
CONTINUOUS
 62
     3
100
AcDbLine
 10
64.01100049999989
 20
64.3474245
 30
0.0
 11
66.4076345
 21
72.18646049999991
 31
0.0
  0
LINE
  5
10E
330
1E
100
AcDbEntity
  8
CSLAYER1
  6
CONTINUOUS
 62
     3
100
AcDbLine
 10
67.23030300000001
 20
72.2
 30
0.0
 11
78.9
 21
72.2
 31
0.0
  0
LINE
  5
10F
330
1E
100
AcDbEntity
  8
CSLAYER1
  6
CONTINUOUS
 62
     3
100
AcDbLine
 10
78.9
 20
56.2
 30
0.0
 11
67.23030300000001
 21
56.2
 31
0.0
  0
CIRCLE
  5
110
330
1E
100
AcDbEntity
  8
CSLAYER1
  6
CONTINUOUS
 62
     3
100
AcDbCircle
 10
73.9
 20
64.2
 30
0.0
 40
5.5
  0
CIRCLE
  5
111
330
1E
100
AcDbEntity
  8
CSLAYER1
  6
CONTINUOUS
 62
     3
100
AcDbCircle
 10
73.9
 20
64.2
 30
0.0
 40
2.049999999999998
  0
ARC
  5
112
330
1E
100
AcDbEntity
  8
CSLAYER1
  6
CONTINUOUS
 62
     3
100
AcDbCircle
 10
73.9
 20
64.2
 30
0.0
 40
8.5
100
AcDbArc
 50
109.7499229999999
 51
170.1291099999999
  0
ARC
  5
113
330
1E
100
AcDbEntity
  8
CSLAYER1
  6
CONTINUOUS
 62
     3
100
AcDbCircle
 10
67.23030300000001
 20
81.2
 30
0.0
 40
25.0
100
AcDbArc
 50
226.1150839999999
 51
270.0
  0
LINE
  5
114
330
1E
100
AcDbEntity
  8
CSLAYER1
  6
CONTINUOUS
 62
     3
100
AcDbLine
 10
76.77228149999995
 20
37.7
 30
0.0
 11
76.77228149999995
 21
34.7
 31
0.0
  0
LINE
  5
115
330
1E
100
AcDbEntity
  8
CSLAYER1
  6
CONTINUOUS
 62
     3
100
AcDbLine
 10
76.77228149999995
 20
34.7
 30
0.0
 11
76.27228149999995
 21
34.2
 31
0.0
  0
LINE
  5
116
330
1E
100
AcDbEntity
  8
CSLAYER1
  6
CONTINUOUS
 62
     3
100
AcDbLine
 10
71.5277185
 20
34.2
 30
0.0
 11
71.0277185
 21
33.7
 31
0.0
  0
LINE
  5
117
330
1E
100
AcDbEntity
  8
CSLAYER1
  6
CONTINUOUS
 62
     3
100
AcDbLine
 10
71.0277185
 20
33.7
 30
0.0
 11
71.0277185
 21
30.7
 31
0.0
  0
LINE
  5
118
330
1E
100
AcDbEntity
  8
CSLAYER1
  6
CONTINUOUS
 62
     3
100
AcDbLine
 10
65.8665045
 20
30.7
 30
0.0
 11
65.8665045
 21
33.7
 31
0.0
  0
LINE
  5
119
330
1E
100
AcDbEntity
  8
CSLAYER1
  6
CONTINUOUS
 62
     3
100
AcDbLine
 10
66.36650450000001
 20
34.2
 30
0.0
 11
81.43349549999994
 21
34.2
 31
0.0
  0
ARC
  5
11A
330
1E
100
AcDbEntity
  8
CSLAYER1
  6
CONTINUOUS
 62
     3
100
AcDbCircle
 10
81.43349549999994
 20
34.7
 30
0.0
 40
0.5
100
AcDbArc
 50
270.0
 51
0.0
  0
LINE
  5
11B
330
1E
100
AcDbEntity
  8
CSLAYER1
  6
CONTINUOUS
 62
     3
100
AcDbLine
 10
81.93349549999995
 20
34.7
 30
0.0
 11
81.93349549999995
 21
37.7
 31
0.0
  0
ARC
  5
11C
330
1E
100
AcDbEntity
  8
CSLAYER1
  6
CONTINUOUS
 62
     3
100
AcDbCircle
 10
66.36650450000001
 20
33.7
 30
0.0
 40
0.5
100
AcDbArc
 50
90.0
 51
180.0
  0
LINE
  5
11D
330
1E
100
AcDbEntity
  8
CSLAYER1
  6
CONTINUOUS
 62
     3
100
AcDbLine
 10
63.39999999999999
 20
30.7
 30
0.0
 11
110.4
 21
30.7
 31
0.0
  0
LINE
  5
11E
330
1E
100
AcDbEntity
  8
CSLAYER1
  6
CONTINUOUS
 62
     3
100
AcDbLine
 10
110.4
 20
37.7
 30
0.0
 11
49.9
 21
37.7
 31
0.0
  0
LINE
  5
11F
330
1E
100
AcDbEntity
  8
CSLAYER1
  6
CONTINUOUS
 62
     3
100
AcDbLine
 10
49.9
 20
37.7
 30
0.0
 11
49.9
 21
36.9951535
 31
0.0
  0
LINE
  5
120
330
1E
100
AcDbEntity
  8
CSLAYER1
  6
CONTINUOUS
 62
     3
100
AcDbLine
 10
49.9
 20
36.9951535
 30
0.0
 11
63.39999999999999
 21
30.7
 31
0.0
  0
LINE
  5
121
330
1E
100
AcDbEntity
  8
CSLAYER1
  6
CONTINUOUS
 62
     3
100
AcDbLine
 10
139.5
 20
25.0
 30
0.0
 11
119.0
 21
25.0
 31
0.0
  0
LINE
  5
122
330
1E
100
AcDbEntity
  8
CSLAYER1
  6
CENTER
 62
     4
100
AcDbLine
 10
62.1892855
 20
34.2
 30
0.0
 11
66.36650450000001
 21
34.2
 31
0.0
  0
LINE
  5
123
330
1E
100
AcDbEntity
  8
CSLAYER1
  6
CENTER
 62
     4
100
AcDbLine
 10
73.9
 20
28.21142849999999
 30
0.0
 11
73.9
 21
40.68714299999999
 31
0.0
  0
LINE
  5
124
330
1E
100
AcDbEntity
  8
CSLAYER1
  6
CENTER
 62
     4
100
AcDbLine
 10
81.43349549999994
 20
34.2
 30
0.0
 11
84.97785699999999
 21
34.2
 31
0.0
  0
LINE
  5
125
330
1E
100
AcDbEntity
  8
CSLAYER1
  6
CENTER
 62
     4
100
AcDbLine
 10
116.957857
 20
64.2
 30
0.0
 11
60.7756935
 21
64.2
 31
0.0
  0
LINE
  5
126
330
1E
100
AcDbEntity
  8
CSLAYER1
  6
CENTER
 62
     4
100
AcDbLine
 10
73.9
 20
53.16285699999995
 30
0.0
 11
73.9
 21
74.85647199999995
 31
0.0
  0
LINE
  5
128
330
1E
100
AcDbEntity
  8
CSLAYER1
  6
CENTER
 62
     4
100
AcDbLine
 10
17.5585665
 20
64.2
 30
0.0
 11
19.465605
 21
64.2
 31
0.0
  0
POINT
  5
129
330
1E
100
AcDbEntity
  8
CSLAYER1
 62
     3
100
AcDbPoint
 10
61.68200099999995
 20
31.50111599999999
 30
0.0
  0
LINE
  5
12A
330
1E
100
AcDbEntity
  8
CSLAYER1
  6
DASHED
 62
     4
100
AcDbLine
 10
63.342987
 20
37.7
 30
0.0
 11
61.83622549999995
 21
32.076689
 31
0.0
  0
ARC
  5
12B
330
1E
100
AcDbEntity
  8
CSLAYER1
  6
DASHED
 62
     4
100
AcDbCircle
 10
61.3532625
 20
32.20609849999999
 30
0.0
 40
0.5
100
AcDbArc
 50
245.0
 51
345.0
  0
LINE
  5
12C
330
1E
100
AcDbEntity
  8
CSLAYER1
  6
CONTINUOUS
 62
     3
100
AcDbLine
 10
63.342987
 20
64.0
 30
0.0
 11
62.28973649999995
 21
59.04484599999999
 31
0.0
  0
LINE
  5
12D
330
1E
100
AcDbEntity
  8
CSLAYER1
  6
CONTINUOUS
 62
     3
100
AcDbLine
 10
49.9
 20
63.9
 30
0.0
 11
61.59729449999995
 21
58.69202900000001
 31
0.0
  0
LINE
  5
12E
330
1E
100
AcDbEntity
  8
CSLAYER1
  6
CONTINUOUS
 62
     3
100
AcDbLine
 10
61.17735500000001
 20
64.0
 30
0.0
 11
62.10612349999995
 21
58.75295600000001
 31
0.0
  0
ARC
  5
12F
330
1E
100
AcDbEntity
  8
CSLAYER1
  6
CONTINUOUS
 62
     3
100
AcDbCircle
 10
61.800663
 20
59.14880150000001
 30
0.0
 40
0.5
100
AcDbArc
 50
246.0
 51
348.0
  0
ARC
  5
130
330
1E
100
AcDbEntity
  8
CSLAYER1
  6
CONTINUOUS
 62
     3
100
AcDbCircle
 10
61.800663
 20
69.25119849999996
 30
0.0
 40
0.5
100
AcDbArc
 50
12.0
 51
114.0
  0
LINE
  5
131
330
1E
100
AcDbEntity
  8
CSLAYER1
  6
CONTINUOUS
 62
     3
100
AcDbLine
 10
63.342987
 20
64.40000000000001
 30
0.0
 11
62.28973649999995
 21
69.35515399999996
 31
0.0
  0
LINE
  5
132
330
1E
100
AcDbEntity
  8
CSLAYER1
  6
CONTINUOUS
 62
     3
100
AcDbLine
 10
61.17735500000001
 20
64.40000000000001
 30
0.0
 11
62.10612349999995
 21
69.64704399999995
 31
0.0
  0
LINE
  5
133
330
1E
100
AcDbEntity
  8
CSLAYER1
  6
CONTINUOUS
 62
     3
100
AcDbLine
 10
49.9
 20
64.5
 30
0.0
 11
61.59729449999995
 21
69.707971
 31
0.0
  0
ARC
  5
134
330
1E
100
AcDbEntity
  8
CSLAYER1
  6
CONTINUOUS
 62
     3
100
AcDbCircle
 10
67.23030300000001
 20
47.2
 30
0.0
 40
25.0
100
AcDbArc
 50
90.0
 51
133.884916
  0
LINE
  5
135
330
1E
100
AcDbEntity
  8
CSLAYER1
  6
CENTER
 62
     4
100
AcDbLine
 10
49.9
 20
64.2
 30
0.0
 11
47.44038849999999
 21
64.2
 31
0.0
  0
LINE
  5
136
330
1E
100
AcDbEntity
  8
CSLAYER1
  6
CENTER
 62
     4
100
AcDbLine
 10
19.86560499999999
 20
64.2
 30
0.0
 11
27.5119465
 21
64.2
 31
0.0
  0
LINE
  5
138
330
1E
100
AcDbEntity
  8
CSLAYER1
  6
CONTINUOUS
 62
     3
100
AcDbLine
 10
20.18242499999999
 20
72.2
 30
0.0
 11
25.76560499999999
 21
72.2
 31
0.0
  0
LINE
  5
139
330
1E
100
AcDbEntity
  8
CSLAYER1
  6
CONTINUOUS
 62
     3
100
AcDbLine
 10
20.18242499999999
 20
56.2
 30
0.0
 11
25.76560499999999
 21
56.2
 31
0.0
  0
LINE
  5
13A
330
1E
100
AcDbEntity
  8
CSLAYER1
  6
CONTINUOUS
 62
     3
100
AcDbLine
 10
25.76560499999999
 20
72.2
 30
0.0
 11
25.76560499999999
 21
70.09999999999995
 31
0.0
  0
LINE
  5
13B
330
1E
100
AcDbEntity
  8
CSLAYER1
  6
CONTINUOUS
 62
     3
100
AcDbLine
 10
25.76560499999999
 20
56.2
 30
0.0
 11
25.76560499999999
 21
58.1
 31
0.0
  0
LINE
  5
141
330
1E
100
AcDbEntity
  8
CSLAYER1
  6
CONTINUOUS
 62
     3
100
AcDbLine
 10
26.1382285
 20
18.57045949999999
 30
0.0
 11
26.05336649999999
 21
17.5556605
 31
0.0
  0
ARC
  5
142
330
1E
100
AcDbEntity
  8
CSLAYER1
  6
CONTINUOUS
 62
     3
100
AcDbCircle
 10
39.5113055
 20
14.6239685
 30
0.0
 40
2.0
100
AcDbArc
 50
27.76499199999999
 51
85.21980799999999
  0
LINE
  5
143
330
1E
100
AcDbEntity
  8
CSLAYER1
  6
CONTINUOUS
 62
     3
100
AcDbLine
 10
39.67797199999999
 20
16.61701199999999
 30
0.0
 11
37.3081625
 21
16.8151855
 31
0.0
  0
LINE
  5
144
330
1E
100
AcDbEntity
  8
CSLAYER1
  6
CONTINUOUS
 62
     3
100
AcDbLine
 10
26.05336649999999
 20
17.5556605
 30
0.0
 11
37.2562175
 21
16.618831
 31
0.0
  0
LINE
  5
145
330
1E
100
AcDbEntity
  8
CSLAYER1
  6
CONTINUOUS
 62
     3
100
AcDbLine
 10
40.1275705
 20
16.5266555
 30
0.0
 11
43.1691215
 21
24.138706
 31
0.0
  0
LINE
  5
146
330
1E
100
AcDbEntity
  8
CSLAYER1
  6
CONTINUOUS
 62
     3
100
AcDbLine
 10
43.9900565
 20
24.08364249999999
 30
0.0
 11
49.969888
 21
23.58358399999999
 31
0.0
  0
CIRCLE
  5
147
330
1E
100
AcDbEntity
  8
CSLAYER1
  6
CONTINUOUS
 62
     3
100
AcDbCircle
 10
49.969888
 20
15.5556605
 30
0.0
 40
5.5
  0
CIRCLE
  5
148
330
1E
100
AcDbEntity
  8
CSLAYER1
  6
CONTINUOUS
 62
     3
100
AcDbCircle
 10
49.969888
 20
15.5556605
 30
0.0
 40
2.049999999999998
  0
ARC
  5
149
330
1E
100
AcDbEntity
  8
CSLAYER1
  6
CONTINUOUS
 62
     3
100
AcDbCircle
 10
49.969888
 20
15.5556605
 30
0.0
 40
8.5
100
AcDbArc
 50
114.5301149999999
 51
174.909302
  0
LINE
  5
14A
330
1E
100
AcDbEntity
  8
CSLAYER1
  6
CENTER
 62
     4
100
AcDbLine
 10
56.391208
 20
15.5556605
 30
0.0
 11
23.9524245
 21
15.5556605
 31
0.0
  0
LINE
  5
14B
330
1E
100
AcDbEntity
  8
CSLAYER1
  6
CENTER
 62
     4
100
AcDbLine
 10
49.969888
 20
4.518517499999999
 30
0.0
 11
49.969888
 21
26.2121325
 31
0.0
  0
ARC
  5
14C
330
1E
100
AcDbEntity
  8
CSLAYER1
  6
CONTINUOUS
 62
     3
100
AcDbCircle
 10
38.333569
 20
21.5975675
 30
0.0
 40
0.5
100
AcDbArc
 50
7.219808
 51
109.2198079999998
  0
LINE
  5
14D
330
1E
100
AcDbEntity
  8
CSLAYER1
  6
CONTINUOUS
 62
     3
100
AcDbLine
 10
39.466262
 20
16.634716
 30
0.0
 11
38.82960449999998
 21
21.66040549999999
 31
0.0
  0
LINE
  5
14E
330
1E
100
AcDbEntity
  8
CSLAYER1
  6
CONTINUOUS
 62
     3
100
AcDbLine
 10
37.2562175
 20
16.618831
 30
0.0
 11
38.6709545
 21
21.966581
 31
0.0
  0
LINE
  5
14F
330
1E
100
AcDbEntity
  8
CSLAYER1
  6
CONTINUOUS
 62
     3
100
AcDbLine
 10
26.0783665
 20
17.854617
 30
0.0
 11
38.16897249999998
 21
22.069699
 31
0.0
  0
ARC
  5
150
330
1E
100
AcDbEntity
  8
CSLAYER1
  6
CONTINUOUS
 62
     3
100
AcDbCircle
 10
41.906723
 20
-0.8294004999999994
 30
0.0
 40
25.0
100
AcDbArc
 50
85.21980799999999
 51
129.104724
  0
LINE
  5
151
330
1E
100
AcDbEntity
  8
CSLAYER1
  6
CONTINUOUS
 62
     3
100
AcDbLine
 10
26.1382285
 20
12.54086199999999
 30
0.0
 11
26.05336649999999
 21
13.5556605
 31
0.0
  0
ARC
  5
152
330
1E
100
AcDbEntity
  8
CSLAYER1
  6
CONTINUOUS
 62
     3
100
AcDbCircle
 10
39.5113055
 20
16.4873525
 30
0.0
 40
2.0
100
AcDbArc
 50
274.780192
 51
354.909302
  0
LINE
  5
153
330
1E
100
AcDbEntity
  8
CSLAYER1
  6
CONTINUOUS
 62
     3
100
AcDbLine
 10
39.67797199999999
 20
14.49430949999999
 30
0.0
 11
37.3081625
 21
14.29613599999999
 31
0.0
  0
LINE
  5
154
330
1E
100
AcDbEntity
  8
CSLAYER1
  6
CONTINUOUS
 62
     3
100
AcDbLine
 10
26.05336649999999
 20
13.5556605
 30
0.0
 11
37.2562175
 21
14.49249
 31
0.0
  0
LINE
  5
155
330
1E
100
AcDbEntity
  8
CSLAYER1
  6
CONTINUOUS
 62
     3
100
AcDbLine
 10
43.9900565
 20
7.0276785
 30
0.0
 11
54.88759899999995
 21
7.938977
 31
0.0
  0
ARC
  5
156
330
1E
100
AcDbEntity
  8
CSLAYER1
  6
CONTINUOUS
 62
     3
100
AcDbCircle
 10
38.333569
 20
9.513753499999999
 30
0.0
 40
0.5
100
AcDbArc
 50
250.780192
 51
352.7801919999998
  0
LINE
  5
157
330
1E
100
AcDbEntity
  8
CSLAYER1
  6
CONTINUOUS
 62
     3
100
AcDbLine
 10
39.466262
 20
14.476605
 30
0.0
 11
38.82960449999998
 21
9.4509155
 31
0.0
  0
LINE
  5
158
330
1E
100
AcDbEntity
  8
CSLAYER1
  6
CONTINUOUS
 62
     3
100
AcDbLine
 10
37.2562175
 20
14.49249
 30
0.0
 11
38.6709545
 21
9.144739999999989
 31
0.0
  0
LINE
  5
159
330
1E
100
AcDbEntity
  8
CSLAYER1
  6
CONTINUOUS
 62
     3
100
AcDbLine
 10
26.0783665
 20
13.256704
 30
0.0
 11
38.16897249999998
 21
9.0416225
 31
0.0
  0
ARC
  5
15A
330
1E
100
AcDbEntity
  8
CSLAYER1
  6
CONTINUOUS
 62
     3
100
AcDbCircle
 10
41.906723
 20
31.94072199999999
 30
0.0
 40
25.0
100
AcDbArc
 50
230.8952759999999
 51
274.780192
  0
LINE
  5
15B
330
1E
100
AcDbEntity
  8
CSLAYER1
  6
CONTINUOUS
 62
     3
100
AcDbLine
 10
46.4409305
 20
23.28847749999999
 30
0.0
 11
54.784275
 21
23.986183
 31
0.0
  0
LINE
  5
15D
330
1E
100
AcDbEntity
  8
CSLAYER1
  6
CONTINUOUS
 62
     3
100
AcDbLine
 10
16.0367045
 20
23.45566049999999
 30
0.0
 11
10.1367045
 21
17.5556605
 31
0.0
  0
LINE
  5
15E
330
1E
100
AcDbEntity
  8
CSLAYER1
  6
CONTINUOUS
 62
     3
100
AcDbLine
 10
10.1367045
 20
17.5556605
 30
0.0
 11
9.7367045
 21
17.5556605
 31
0.0
  0
ARC
  5
15F
330
1E
100
AcDbEntity
  8
CSLAYER1
  6
CONTINUOUS
 62
     3
100
AcDbCircle
 10
54.7367045
 20
17.5556605
 30
0.0
 40
45.0
100
AcDbArc
 50
169.7596519999999
 51
180.0
  0
ARC
  5
160
330
1E
100
AcDbEntity
  8
CSLAYER1
  6
CONTINUOUS
 62
     3
100
AcDbCircle
 10
54.7367045
 20
13.5556605
 30
0.0
 40
45.0
100
AcDbArc
 50
180.4381649999999
 51
190.240348
  0
LINE
  5
161
330
1E
100
AcDbEntity
  8
CSLAYER1
  6
CONTINUOUS
 62
     3
100
AcDbLine
 10
9.73802049999999
 20
13.2115295
 30
0.0
 11
9.93670449999999
 21
13.5556605
 31
0.0
  0
LINE
  5
162
330
1E
100
AcDbEntity
  8
CSLAYER1
  6
CONTINUOUS
 62
     3
100
AcDbLine
 10
9.93670449999999
 20
13.5556605
 30
0.0
 11
16.0367045
 21
7.455660499999995
 31
0.0
  0
LINE
  5
163
330
1E
100
AcDbEntity
  8
CSLAYER1
  6
CONTINUOUS
 62
     3
100
AcDbLine
 10
10.453525
 20
25.5556605
 30
0.0
 11
16.0367045
 21
25.5556605
 31
0.0
  0
LINE
  5
164
330
1E
100
AcDbEntity
  8
CSLAYER1
  6
CONTINUOUS
 62
     3
100
AcDbLine
 10
10.453525
 20
5.5556605
 30
0.0
 11
16.0367045
 21
5.5556605
 31
0.0
  0
LINE
  5
165
330
1E
100
AcDbEntity
  8
CSLAYER1
  6
CONTINUOUS
 62
     3
100
AcDbLine
 10
16.0367045
 20
25.5556605
 30
0.0
 11
16.0367045
 21
23.45566049999999
 31
0.0
  0
LINE
  5
166
330
1E
100
AcDbEntity
  8
CSLAYER1
  6
CONTINUOUS
 62
     3
100
AcDbLine
 10
16.0367045
 20
5.5556605
 30
0.0
 11
16.0367045
 21
7.455660499999995
 31
0.0
  0
LINE
  5
167
330
1E
100
AcDbEntity
  8
CSLAYER1
  6
CENTER
 62
     4
100
AcDbLine
 10
8.334630499999995
 20
15.5556605
 30
0.0
 11
17.4596335
 21
15.5556605
 31
0.0
  0
LINE
  5
169
330
1E
100
AcDbEntity
  8
CSLAYER1
  6
CONTINUOUS
 62
     3
100
AcDbLine
 10
60.7756935
 20
64.40000000000001
 30
0.0
 11
60.7756935
 21
64.0
 31
0.0
  0
LINE
  5
16C
330
1E
100
AcDbEntity
  8
CSLAYER1
  6
CONTINUOUS
 62
     3
100
AcDbLine
 10
21.465605
 20
72.2
 30
0.0
 11
21.465605
 21
65.8
 31
0.0
  0
LINE
  5
16D
330
1E
100
AcDbEntity
  8
CSLAYER1
  6
CONTINUOUS
 62
     3
100
AcDbLine
 10
21.465605
 20
56.2
 30
0.0
 11
21.465605
 21
62.39999999999994
 31
0.0
  0
LINE
  5
16E
330
1E
100
AcDbEntity
  8
CSLAYER1
  6
CONTINUOUS
 62
     3
100
AcDbLine
 10
53.12085450000001
 20
37.7
 30
0.0
 11
61.62093
 21
33.73635
 31
0.0
  0
LINE
  5
16F
330
1E
100
AcDbEntity
  8
CSLAYER1
  6
CONTINUOUS
 62
     3
100
AcDbLine
 10
61.62093
 20
33.73635
 30
0.0
 11
60.7756935
 21
31.923734
 31
0.0
  0
LINE
  5
170
330
1E
100
AcDbEntity
  8
CSLAYER1
  6
CONTINUOUS
 62
     3
100
AcDbLine
 10
11.7367045
 20
25.5556605
 30
0.0
 11
11.7367045
 21
19.15566049999999
 31
0.0
  0
LINE
  5
171
330
1E
100
AcDbEntity
  8
CSLAYER1
  6
CONTINUOUS
 62
     3
100
AcDbLine
 10
11.7367045
 20
5.5556605
 30
0.0
 11
11.7367045
 21
11.7556605
 31
0.0
  0
ARC
  5
172
330
1E
100
AcDbEntity
  8
CSLAYER1
  6
CONTINUOUS
 62
     3
100
AcDbCircle
 10
110.4
 20
34.2
 30
0.0
 40
3.5
100
AcDbArc
 50
270.0
 51
90.0
  0
LINE
  5
173
330
1E
100
AcDbEntity
  8
CSLAYER1
  6
CENTER
 62
     4
100
AcDbLine
 10
111.22093
 20
34.2
 30
0.0
 11
117.151519
 21
34.2
 31
0.0
  0
ARC
  5
174
330
1E
100
AcDbEntity
  8
CSLAYER1
  6
CONTINUOUS
 62
     3
100
AcDbCircle
 10
107.937421
 20
63.86906899999999
 30
0.0
 40
6.0
100
AcDbArc
 50
273.270488
 51
353.5975439999998
  0
LINE
  5
175
330
1E
100
AcDbEntity
  8
CSLAYER1
  6
CONTINUOUS
 62
     3
100
AcDbLine
 10
113.9
 20
63.2
 30
0.0
 11
82.9
 21
63.2
 31
0.0
  0
LINE
  5
176
330
1E
100
AcDbEntity
  8
CSLAYER1
  6
CONTINUOUS
 62
     3
100
AcDbLine
 10
83.52834099999995
 20
63.2
 30
0.0
 11
81.43246949999996
 21
56.3447125
 31
0.0
  0
LINE
  5
177
330
1E
100
AcDbEntity
  8
CSLAYER1
  6
CONTINUOUS
 62
     3
100
AcDbLine
 10
78.9
 20
56.2
 30
0.0
 11
108.2797199999999
 21
57.878841
 31
0.0
  0
LINE
  5
178
330
1E
100
AcDbEntity
  8
CSLAYER1
  6
CONTINUOUS
 62
     3
100
AcDbLine
 10
109.8999999999999
 20
63.2
 30
0.0
 11
109.8999999999999
 21
65.2
 31
0.0
  0
LINE
  5
179
330
1E
100
AcDbEntity
  8
CSLAYER1
  6
CONTINUOUS
 62
     3
100
AcDbLine
 10
105.9
 20
65.2
 30
0.0
 11
105.9
 21
63.2
 31
0.0
  0
LINE
  5
17A
330
1E
100
AcDbEntity
  8
CSLAYER1
  6
CONTINUOUS
 62
     3
100
AcDbLine
 10
108.2797199999999
 20
70.52115899999995
 30
0.0
 11
78.9
 21
72.2
 31
0.0
  0
ARC
  5
17B
330
1E
100
AcDbEntity
  8
CSLAYER1
  6
CONTINUOUS
 62
     3
100
AcDbCircle
 10
73.9
 20
64.2
 30
0.0
 40
8.5
100
AcDbArc
 50
289.7499229999999
 51
3.366461
  0
LINE
  5
17C
330
1E
100
AcDbEntity
  8
CSLAYER1
  6
CONTINUOUS
 62
     3
100
AcDbLine
 10
82.4
 20
64.2
 30
0.0
 11
82.4
 21
63.7
 31
0.0
  0
ARC
  5
17D
330
1E
100
AcDbEntity
  8
CSLAYER1
  6
CONTINUOUS
 62
     3
100
AcDbCircle
 10
82.9
 20
63.7
 30
0.0
 40
0.5
100
AcDbArc
 50
180.0
 51
270.0
  0
LINE
  5
17E
330
1E
100
AcDbEntity
  8
CSLAYER1
  6
CONTINUOUS
 62
     3
100
AcDbLine
 10
82.9
 20
65.2
 30
0.0
 11
113.9
 21
65.2
 31
0.0
  0
ARC
  5
17F
330
1E
100
AcDbEntity
  8
CSLAYER1
  6
CONTINUOUS
 62
     3
100
AcDbCircle
 10
107.937421
 20
64.53093100000001
 30
0.0
 40
6.0
100
AcDbArc
 50
6.402455999999999
 51
86.72951199999998
  0
ARC
  5
180
330
1E
100
AcDbEntity
  8
CSLAYER1
  6
CONTINUOUS
 62
     3
100
AcDbCircle
 10
82.9
 20
64.7
 30
0.0
 40
0.5
100
AcDbArc
 50
90.0
 51
180.0
  0
LINE
  5
181
330
1E
100
AcDbEntity
  8
CSLAYER1
  6
CENTER
 62
     4
100
AcDbLine
 10
107.9
 20
61.01657149999995
 30
0.0
 11
107.9
 21
67.65428549999995
 31
0.0
  0
LINE
  5
182
330
1E
100
AcDbEntity
  8
CSLAYER1
  6
CENTER
 62
     4
100
AcDbLine
 10
86.90000000000001
 20
68.431212
 30
0.0
 11
86.90000000000001
 21
59.38969699999995
 31
0.0
  0
LINE
  5
183
330
1E
100
AcDbEntity
  8
CSLAYER1
  6
DOT
 62
     3
100
AcDbLine
 10
2.5
 20
0.5
 30
0.0
 11
142.0
 21
0.5
 31
0.0
  0
LINE
  5
184
330
1E
100
AcDbEntity
  8
CSLAYER1
  6
DOT
 62
     3
100
AcDbLine
 10
142.0
 20
0.5
 30
0.0
 11
142.0
 21
97.5
 31
0.0
  0
LINE
  5
185
330
1E
100
AcDbEntity
  8
CSLAYER1
  6
DOT
 62
     3
100
AcDbLine
 10
142.0
 20
97.5
 30
0.0
 11
2.5
 21
97.5
 31
0.0
  0
LINE
  5
186
330
1E
100
AcDbEntity
  8
CSLAYER1
  6
DOT
 62
     3
100
AcDbLine
 10
2.5
 20
97.5
 30
0.0
 11
2.5
 21
0.5
 31
0.0
  0
LINE
  5
187
330
1E
100
AcDbEntity
  8
CSLAYER1
  6
DOT
 62
     3
100
AcDbLine
 10
2.5
 20
49.0
 30
0.0
 11
0.5
 21
49.0
 31
0.0
  0
LINE
  5
188
330
1E
100
AcDbEntity
  8
CSLAYER1
  6
DOT
 62
     3
100
AcDbLine
 10
17.5
 20
93.49999999999999
 30
0.0
 11
2.5
 21
93.49999999999999
 31
0.0
  0
LINE
  5
189
330
1E
100
AcDbEntity
  8
CSLAYER1
  6
DOT
 62
     3
100
AcDbLine
 10
17.5
 20
93.49999999999999
 30
0.0
 11
17.5
 21
97.5
 31
0.0
  0
LINE
  5
18A
330
1E
100
AcDbEntity
  8
CSLAYER1
  6
DOT
 62
     3
100
AcDbLine
 10
142.0
 20
49.0
 30
0.0
 11
144.0
 21
49.0
 31
0.0
  0
LINE
  5
18B
330
1E
100
AcDbEntity
  8
CSLAYER1
  6
DOT
 62
     3
100
AcDbLine
 10
72.25
 20
97.5
 30
0.0
 11
72.25
 21
99.50000000000001
 31
0.0
  0
TEXT
  5
1EA
330
1E
100
AcDbEntity
  8
CSLAYER1
 62
     4
100
AcDbText
 10
60.4000015
 20
81.95875550000002
 30
0.0
 40
1.5
  1
24
 41
1.2
 51
15.0
  7
FX_FONT
 72
     5
 11
63.4000015
 21
81.95875550000002
 31
0.0
100
AcDbText
  0
LINE
  5
1EB
330
1E
100
AcDbEntity
  8
CSLAYER1
 62
     4
100
AcDbLine
 10
49.9
 20
81.45875850000001
 30
0.0
 11
73.9
 21
81.45875850000001
 31
0.0
  0
LINE
  5
1EC
330
1E
100
AcDbEntity
  8
CSLAYER1
 62
     4
100
AcDbLine
 10
49.9
 20
81.45875850000001
 30
0.0
 11
51.3488885
 21
81.846987
 31
0.0
  0
LINE
  5
1ED
330
1E
100
AcDbEntity
  8
CSLAYER1
 62
     4
100
AcDbLine
 10
49.9
 20
81.45875850000001
 30
0.0
 11
51.3488885
 21
81.07053
 31
0.0
  0
LINE
  5
1EE
330
1E
100
AcDbEntity
  8
CSLAYER1
 62
     4
100
AcDbLine
 10
73.9
 20
81.45875850000001
 30
0.0
 11
72.45111149999996
 21
81.846987
 31
0.0
  0
LINE
  5
1EF
330
1E
100
AcDbEntity
  8
CSLAYER1
 62
     4
100
AcDbLine
 10
73.9
 20
81.45875850000001
 30
0.0
 11
72.45111149999996
 21
81.07053
 31
0.0
  0
LINE
  5
1F0
330
1E
100
AcDbEntity
  8
CSLAYER1
 62
     4
100
AcDbLine
 10
49.9
 20
65.71834100000001
 30
0.0
 11
49.9
 21
81.9587585
 31
0.0
  0
LINE
  5
1F1
330
1E
100
AcDbEntity
  8
CSLAYER1
 62
     4
100
AcDbLine
 10
73.9
 20
75.35647199999996
 30
0.0
 11
73.9
 21
81.9587585
 31
0.0
  0
TEXT
  5
1F2
330
1E
100
AcDbEntity
  8
CSLAYER1
 62
     4
100
AcDbText
 10
40.67575849999999
 20
58.94999699999996
 30
0.0
 40
1.5
  1
14.5~16
 50
90.0
 41
1.05
 51
15.0
  7
FX_FONT
 72
     5
 11
40.67575849999999
 21
69.44999699999995
 31
0.0
100
AcDbText
  0
LINE
  5
1F3
330
1E
100
AcDbEntity
  8
CSLAYER1
 62
     4
100
AcDbLine
 10
64.99913499999995
 20
56.2
 30
0.0
 11
40.6757575
 21
56.2
 31
0.0
  0
LINE
  5
1F4
330
1E
100
AcDbEntity
  8
CSLAYER1
 62
     4
100
AcDbLine
 10
66.55795949999995
 20
72.2
 30
0.0
 11
40.6757575
 21
72.2
 31
0.0
  0
LINE
  5
1F5
330
1E
100
AcDbEntity
  8
CSLAYER1
 62
     4
100
AcDbLine
 10
41.1757575
 20
56.2
 30
0.0
 11
41.1757575
 21
72.2
 31
0.0
  0
LINE
  5
1F6
330
1E
100
AcDbEntity
  8
CSLAYER1
 62
     4
100
AcDbLine
 10
41.1757575
 20
56.2
 30
0.0
 11
40.787529
 21
57.64888849999995
 31
0.0
  0
LINE
  5
1F7
330
1E
100
AcDbEntity
  8
CSLAYER1
 62
     4
100
AcDbLine
 10
41.1757575
 20
56.2
 30
0.0
 11
41.563986
 21
57.64888849999995
 31
0.0
  0
LINE
  5
1F8
330
1E
100
AcDbEntity
  8
CSLAYER1
 62
     4
100
AcDbLine
 10
41.1757575
 20
72.2
 30
0.0
 11
40.787529
 21
70.75111149999995
 31
0.0
  0
LINE
  5
1F9
330
1E
100
AcDbEntity
  8
CSLAYER1
 62
     4
100
AcDbLine
 10
41.1757575
 20
72.2
 30
0.0
 11
41.563986
 21
70.75111149999995
 31
0.0
  0
TEXT
  5
1FA
330
1E
100
AcDbEntity
  8
CSLAYER1
 62
     4
100
AcDbText
 10
25.4729345
 20
68.66820699999995
 30
0.0
 40
1.5
  1
R45
 50
354.1928693586524
 41
1.124999985032012
 51
15.0
  7
FX_FONT
 72
     5
 11
29.94984099999999
 21
68.21289649999996
 31
0.0
100
AcDbText
  0
LINE
  5
1FB
330
1E
100
AcDbEntity
  8
CSLAYER1
 62
     4
100
AcDbLine
 10
19.696539
 20
68.75310199999995
 30
0.0
 11
35.6250565
 21
67.13314049999995
 31
0.0
  0
LINE
  5
1FC
330
1E
100
AcDbEntity
  8
CSLAYER1
 62
     4
100
AcDbLine
 10
19.696539
 20
68.75310199999995
 30
0.0
 11
21.17727299999999
 21
68.99273949999995
 31
0.0
  0
LINE
  5
1FD
330
1E
100
AcDbEntity
  8
CSLAYER1
 62
     4
100
AcDbLine
 10
19.696539
 20
68.75310199999995
 30
0.0
 11
21.09871099999999
 21
68.22026700000001
 31
0.0
  0
TEXT
  5
1FE
330
1E
100
AcDbEntity
  8
CSLAYER1
 62
     4
100
AcDbText
 10
10.90930549999999
 20
67.49515550000001
 30
0.0
 40
1.5
  1
(0.4)
 41
1.153846153846153
 51
15.0
  7
FX_FONT
 72
     5
 11
18.40930549999998
 21
67.49515550000001
 31
0.0
100
AcDbText
  0
LINE
  5
1FF
330
1E
100
AcDbEntity
  8
CSLAYER1
 62
     4
100
AcDbLine
 10
16.67045299999999
 20
66.9951515
 30
0.0
 11
17.070453
 21
66.9951515
 31
0.0
  0
LINE
  5
200
330
1E
100
AcDbEntity
  8
CSLAYER1
 62
     4
100
AcDbLine
 10
19.11205149999999
 20
64.55355350000001
 30
0.0
 11
16.31689949999999
 21
67.34870500000001
 31
0.0
  0
LINE
  5
201
330
1E
100
AcDbEntity
  8
CSLAYER1
 62
     4
100
AcDbLine
 10
19.5120515
 20
64.55355350000001
 30
0.0
 11
16.7168995
 21
67.34870500000001
 31
0.0
  0
LINE
  5
202
330
1E
100
AcDbEntity
  8
CSLAYER1
 62
     4
100
AcDbLine
 10
12.648157
 20
66.9951515
 30
0.0
 11
16.67045299999999
 21
66.9951515
 31
0.0
  0
LINE
  5
203
330
1E
100
AcDbEntity
  8
CSLAYER1
 62
     4
100
AcDbLine
 10
16.67045299999999
 20
66.9951515
 30
0.0
 11
15.22156449999999
 21
67.38338
 31
0.0
  0
LINE
  5
204
330
1E
100
AcDbEntity
  8
CSLAYER1
 62
     4
100
AcDbLine
 10
16.67045299999999
 20
66.9951515
 30
0.0
 11
15.22156449999999
 21
66.60692299999995
 31
0.0
  0
LINE
  5
205
330
1E
100
AcDbEntity
  8
CSLAYER1
 62
     4
100
AcDbLine
 10
17.070453
 20
66.9951515
 30
0.0
 11
18.7482125
 21
66.9951515
 31
0.0
  0
LINE
  5
206
330
1E
100
AcDbEntity
  8
CSLAYER1
 62
     4
100
AcDbLine
 10
17.070453
 20
66.9951515
 30
0.0
 11
18.519342
 21
67.38338
 31
0.0
  0
LINE
  5
207
330
1E
100
AcDbEntity
  8
CSLAYER1
 62
     4
100
AcDbLine
 10
17.070453
 20
66.9951515
 30
0.0
 11
18.519342
 21
66.60692299999995
 31
0.0
  0
TEXT
  5
208
330
1E
100
AcDbEntity
  8
CSLAYER1
 62
     4
100
AcDbText
 10
44.327461
 20
63.4338685
 30
0.0
 40
1.5
  1
2
 50
90.0
 41
1.5
 51
15.0
  7
FX_FONT
 72
     5
 11
44.327461
 21
64.9338685
 31
0.0
100
AcDbText
  0
LINE
  5
209
330
1E
100
AcDbEntity
  8
CSLAYER1
 62
     4
100
AcDbLine
 10
49.4
 20
63.181659
 30
0.0
 11
44.72799950000001
 21
63.181659
 31
0.0
  0
LINE
  5
20A
330
1E
100
AcDbEntity
  8
CSLAYER1
 62
     4
100
AcDbLine
 10
49.4
 20
65.21834100000001
 30
0.0
 11
44.72799950000001
 21
65.21834100000001
 31
0.0
  0
LINE
  5
20B
330
1E
100
AcDbEntity
  8
CSLAYER1
 62
     4
100
AcDbLine
 10
45.2279995
 20
63.181659
 30
0.0
 11
45.2279995
 21
65.21834100000001
 31
0.0
  0
LINE
  5
20C
330
1E
100
AcDbEntity
  8
CSLAYER1
 62
     4
100
AcDbLine
 10
45.2279995
 20
60.18165899999996
 30
0.0
 11
45.2279995
 21
63.181659
 31
0.0
  0
LINE
  5
20D
330
1E
100
AcDbEntity
  8
CSLAYER1
 62
     4
100
AcDbLine
 10
45.2279995
 20
63.181659
 30
0.0
 11
44.83977099999999
 21
61.73277049999999
 31
0.0
  0
LINE
  5
20E
330
1E
100
AcDbEntity
  8
CSLAYER1
 62
     4
100
AcDbLine
 10
45.2279995
 20
63.181659
 30
0.0
 11
45.616228
 21
61.73277049999999
 31
0.0
  0
LINE
  5
20F
330
1E
100
AcDbEntity
  8
CSLAYER1
 62
     4
100
AcDbLine
 10
45.2279995
 20
65.21834100000001
 30
0.0
 11
45.2279995
 21
68.21834100000001
 31
0.0
  0
LINE
  5
210
330
1E
100
AcDbEntity
  8
CSLAYER1
 62
     4
100
AcDbLine
 10
45.2279995
 20
65.21834100000001
 30
0.0
 11
44.83977099999999
 21
66.6672295
 31
0.0
  0
LINE
  5
211
330
1E
100
AcDbEntity
  8
CSLAYER1
 62
     4
100
AcDbLine
 10
45.2279995
 20
65.21834100000001
 30
0.0
 11
45.616228
 21
66.6672295
 31
0.0
  0
TEXT
  5
212
330
1E
100
AcDbEntity
  8
CSLAYER1
 62
     4
100
AcDbText
 10
57.23616299999996
 20
63.50183849999996
 30
0.0
 40
1.5
  1
R25
 50
61.95624034529458
 41
1.125000001699627
 51
15.0
  7
FX_FONT
 72
     5
 11
59.35181899999995
 21
67.47348800000001
 31
0.0
100
AcDbText
  0
LINE
  5
213
330
1E
100
AcDbEntity
  8
CSLAYER1
 62
     4
100
AcDbLine
 10
55.476661
 20
59.1352795
 30
0.0
 11
61.9939105
 21
71.3698955
 31
0.0
  0
LINE
  5
214
330
1E
100
AcDbEntity
  8
CSLAYER1
 62
     4
100
AcDbLine
 10
55.476661
 20
59.1352795
 30
0.0
 11
55.81520349999995
 21
60.59657650000001
 31
0.0
  0
LINE
  5
215
330
1E
100
AcDbEntity
  8
CSLAYER1
 62
     4
100
AcDbLine
 10
55.476661
 20
59.1352795
 30
0.0
 11
56.50049549999989
 21
60.2315285
 31
0.0
  0
LINE
  5
216
330
1E
100
AcDbEntity
  8
CSLAYER1
  6
CONTINUOUS
 62
     4
100
AcDbLine
 10
73.36942099999991
 20
62.219852
 30
0.0
 11
70.048039
 21
49.8242855
 31
0.0
  0
LINE
  5
217
330
1E
100
AcDbEntity
  8
CSLAYER1
  6
CONTINUOUS
 62
     4
100
AcDbLine
 10
73.36942099999991
 20
62.219852
 30
0.0
 11
73.36942099999991
 21
60.719852
 31
0.0
  0
LINE
  5
218
330
1E
100
AcDbEntity
  8
CSLAYER1
  6
CONTINUOUS
 62
     4
100
AcDbLine
 10
73.36942099999991
 20
62.219852
 30
0.0
 11
72.619421
 21
60.920814
 31
0.0
  0
LINE
  5
219
330
1E
100
AcDbEntity
  8
CSLAYER1
  6
CONTINUOUS
 62
     4
100
AcDbLine
 10
70.048039
 20
49.8242855
 30
0.0
 11
62.91999799999995
 21
49.8242855
 31
0.0
  0
TEXT
  5
21A
330
1E
100
AcDbEntity
  8
CSLAYER1
 62
     4
100
AcDbText
 10
62.91999799999995
 20
50.32428749999995
 30
0.0
 40
1.5
  1
%%c4.1
 41
1.142857142857132
 51
15.0
  7
FX_FONT
 72
     5
 11
68.9199979999999
 21
50.32428749999995
 31
0.0
100
AcDbText
  0
TEXT
  5
21B
330
1E
100
AcDbEntity
  8
CSLAYER1
 62
     4
100
AcDbText
 10
44.67036049999999
 20
33.6035955
 30
0.0
 40
1.5
  1
7  
 50
90.0
 41
1.363636363636365
 51
15.0
  7
FX_FONT
 72
     5
 11
44.67036049999999
 21
38.10359550000001
 31
0.0
100
AcDbText
  0
TEXT
  5
21C
330
1E
100
AcDbEntity
  8
CSLAYER1
 62
     4
100
AcDbText
 10
43.9203605
 20
38.10359550000001
 30
0.0
 40
0.75
  1
  0
 50
90.0
 41
1.607142857142857
 51
15.0
  7
FX_FONT
 72
     5
 11
43.9203605
 21
40.35359550000001
 31
0.0
100
AcDbText
  0
TEXT
  5
21D
330
1E
100
AcDbEntity
  8
CSLAYER1
 62
     4
100
AcDbText
 10
44.67036049999999
 20
38.10359550000001
 30
0.0
 40
0.75
  1
-0.15
 50
90.0
 41
1.071428571428569
 51
15.0
  7
FX_FONT
 72
     5
 11
44.67036049999999
 21
41.8535955
 31
0.0
100
AcDbText
  0
LINE
  5
21E
330
1E
100
AcDbEntity
  8
CSLAYER1
 62
     4
100
AcDbLine
 10
45.170361
 20
30.7
 30
0.0
 11
45.170361
 21
37.7
 31
0.0
  0
LINE
  5
21F
330
1E
100
AcDbEntity
  8
CSLAYER1
 62
     4
100
AcDbLine
 10
45.170361
 20
30.7
 30
0.0
 11
44.7821325
 21
32.14888849999999
 31
0.0
  0
LINE
  5
220
330
1E
100
AcDbEntity
  8
CSLAYER1
 62
     4
100
AcDbLine
 10
45.170361
 20
30.7
 30
0.0
 11
45.55859
 21
32.14888849999999
 31
0.0
  0
LINE
  5
221
330
1E
100
AcDbEntity
  8
CSLAYER1
 62
     4
100
AcDbLine
 10
45.170361
 20
37.7
 30
0.0
 11
44.7821325
 21
36.2511115
 31
0.0
  0
LINE
  5
222
330
1E
100
AcDbEntity
  8
CSLAYER1
 62
     4
100
AcDbLine
 10
45.170361
 20
37.7
 30
0.0
 11
45.55859
 21
36.2511115
 31
0.0
  0
LINE
  5
223
330
1E
100
AcDbEntity
  8
CSLAYER1
 62
     4
100
AcDbLine
 10
62.9
 20
30.7
 30
0.0
 11
44.670361
 21
30.7
 31
0.0
  0
LINE
  5
224
330
1E
100
AcDbEntity
  8
CSLAYER1
 62
     4
100
AcDbLine
 10
49.4
 20
37.7
 30
0.0
 11
44.670361
 21
37.7
 31
0.0
  0
TEXT
  5
225
330
1E
100
AcDbEntity
  8
CSLAYER1
 62
     4
100
AcDbText
 10
47.08708
 20
29.18816749999999
 30
0.0
 40
1.5
  1
切刃部有効12
 50
334.9999981465591
 41
0.9130434667149293
 51
15.0
  7
FX_FONT
 72
     5
 11
56.60331149999995
 21
24.7506755
 31
0.0
100
AcDbText
  0
LINE
  5
226
330
1E
100
AcDbEntity
  8
CSLAYER1
 62
     4
100
AcDbLine
 10
46.19603549999999
 20
29.051976
 30
0.0
 11
57.071729
 21
23.980557
 31
0.0
  0
LINE
  5
227
330
1E
100
AcDbEntity
  8
CSLAYER1
 62
     4
100
AcDbLine
 10
46.19603549999999
 20
29.051976
 30
0.0
 11
47.673247
 21
28.79150349999999
 31
0.0
  0
LINE
  5
228
330
1E
100
AcDbEntity
  8
CSLAYER1
 62
     4
100
AcDbLine
 10
46.19603549999999
 20
29.051976
 30
0.0
 11
47.34510199999999
 21
28.0877945
 31
0.0
  0
LINE
  5
229
330
1E
100
AcDbEntity
  8
CSLAYER1
 62
     4
100
AcDbLine
 10
57.071729
 20
23.980557
 30
0.0
 11
55.5945175
 21
24.241029
 31
0.0
  0
LINE
  5
22A
330
1E
100
AcDbEntity
  8
CSLAYER1
 62
     4
100
AcDbLine
 10
57.071729
 20
23.980557
 30
0.0
 11
55.92266249999995
 21
24.944738
 31
0.0
  0
LINE
  5
22B
330
1E
100
AcDbEntity
  8
CSLAYER1
 62
     4
100
AcDbLine
 10
49.688691
 20
36.54199950000001
 30
0.0
 11
45.9847265
 21
28.59882199999999
 31
0.0
  0
LINE
  5
22C
330
1E
100
AcDbEntity
  8
CSLAYER1
 62
     4
100
AcDbLine
 10
60.56438449999999
 20
31.4705805
 30
0.0
 11
56.86042
 21
23.527403
 31
0.0
  0
TEXT
  5
22D
330
1E
100
AcDbEntity
  8
CSLAYER1
 62
     4
100
AcDbText
 10
65.65000149999995
 20
25.0254555
 30
0.0
 40
1.5
  1
10.5
 41
1.090909090909098
 51
15.0
  7
FX_FONT
 72
     5
 11
71.6500015
 21
25.0254555
 31
0.0
100
AcDbText
  0
LINE
  5
22E
330
1E
100
AcDbEntity
  8
CSLAYER1
 62
     4
100
AcDbLine
 10
63.39999999999999
 20
30.2
 30
0.0
 11
63.39999999999999
 21
24.0254545
 31
0.0
  0
LINE
  5
22F
330
1E
100
AcDbEntity
  8
CSLAYER1
 62
     4
100
AcDbLine
 10
73.9
 20
27.71142849999999
 30
0.0
 11
73.9
 21
24.0254545
 31
0.0
  0
LINE
  5
230
330
1E
100
AcDbEntity
  8
CSLAYER1
 62
     4
100
AcDbLine
 10
63.39999999999999
 20
24.5254545
 30
0.0
 11
73.9
 21
24.5254545
 31
0.0
  0
LINE
  5
231
330
1E
100
AcDbEntity
  8
CSLAYER1
 62
     4
100
AcDbLine
 10
63.39999999999999
 20
24.5254545
 30
0.0
 11
64.8488885
 21
24.91368299999999
 31
0.0
  0
LINE
  5
232
330
1E
100
AcDbEntity
  8
CSLAYER1
 62
     4
100
AcDbLine
 10
63.39999999999999
 20
24.5254545
 30
0.0
 11
64.8488885
 21
24.137226
 31
0.0
  0
LINE
  5
233
330
1E
100
AcDbEntity
  8
CSLAYER1
 62
     4
100
AcDbLine
 10
73.9
 20
24.5254545
 30
0.0
 11
72.45111149999996
 21
24.91368299999999
 31
0.0
  0
LINE
  5
234
330
1E
100
AcDbEntity
  8
CSLAYER1
 62
     4
100
AcDbLine
 10
73.9
 20
24.5254545
 30
0.0
 11
72.45111149999996
 21
24.137226
 31
0.0
  0
TEXT
  5
235
330
1E
100
AcDbEntity
  8
CSLAYER1
 62
     4
100
AcDbText
 10
19.59964549999999
 20
14.80566
 30
0.0
 40
1.5
  1
4
 50
90.0
 41
1.499999999999994
 51
15.0
  7
FX_FONT
 72
     5
 11
19.59964549999999
 21
16.30565999999999
 31
0.0
100
AcDbText
  0
LINE
  5
236
330
1E
100
AcDbEntity
  8
CSLAYER1
 62
     4
100
AcDbLine
 10
20.09964549999998
 20
13.5556605
 30
0.0
 11
20.09964549999998
 21
17.5556605
 31
0.0
  0
LINE
  5
237
330
1E
100
AcDbEntity
  8
CSLAYER1
 62
     4
100
AcDbLine
 10
20.09964549999998
 20
13.5556605
 30
0.0
 11
19.711417
 21
15.00454949999999
 31
0.0
  0
LINE
  5
238
330
1E
100
AcDbEntity
  8
CSLAYER1
 62
     4
100
AcDbLine
 10
20.09964549999998
 20
13.5556605
 30
0.0
 11
20.48787399999999
 21
15.00454949999999
 31
0.0
  0
LINE
  5
239
330
1E
100
AcDbEntity
  8
CSLAYER1
 62
     4
100
AcDbLine
 10
20.09964549999998
 20
17.5556605
 30
0.0
 11
19.711417
 21
16.106772
 31
0.0
  0
LINE
  5
23A
330
1E
100
AcDbEntity
  8
CSLAYER1
 62
     4
100
AcDbLine
 10
20.09964549999998
 20
17.5556605
 30
0.0
 11
20.48787399999999
 21
16.106772
 31
0.0
  0
LINE
  5
23B
330
1E
100
AcDbEntity
  8
CSLAYER1
 62
     4
100
AcDbLine
 10
25.5533665
 20
13.5556605
 30
0.0
 11
19.59964549999999
 21
13.5556605
 31
0.0
  0
LINE
  5
23C
330
1E
100
AcDbEntity
  8
CSLAYER1
 62
     4
100
AcDbLine
 10
25.5533665
 20
17.5556605
 30
0.0
 11
19.59964549999999
 21
17.5556605
 31
0.0
  0
ENDSEC
  0
SECTION
  2
OBJECTS
  0
DICTIONARY
  5
C
330
0
100
AcDbDictionary
  3
ACAD_GROUP
350
D
  3
ACAD_LAYOUT
350
19
  3
ACAD_MLINESTYLE
350
16
  3
ACAD_PLOTSETTINGS
350
18
1001
ACAD
1000
TREAT_AS_HARD
1070
     0
1000
TREAT_AS_HARD
1070
     0
1000
TREAT_AS_HARD
1070
     0
  0
DICTIONARY
  5
195
330
1E
100
AcDbDictionary
  3
ACAD_LAYOUTSELFREF
350
241
1001
ACAD
1000
TREAT_AS_HARD
1070
     0
1000
TREAT_AS_HARD
1070
     0
  0
DICTIONARY
  5
193
330
1A
100
AcDbDictionary
  3
ACAD_LAYOUTSELFREF
350
240
1001
ACAD
1000
TREAT_AS_HARD
1070
     0
1000
TREAT_AS_HARD
1070
     0
  0
DICTIONARY
  5
D
102
{ACAD_REACTORS
330
C
102
}
330
C
100
AcDbDictionary
1001
ACAD
1000
TREAT_AS_HARD
1070
     0
1000
TREAT_AS_HARD
1070
     0
1000
TREAT_AS_HARD
1070
     0
  0
DICTIONARY
  5
19
102
{ACAD_REACTORS
330
C
102
}
330
C
100
AcDbDictionary
1001
ACAD
1000
TREAT_AS_HARD
1070
     0
1000
TREAT_AS_HARD
1070
     0
1000
TREAT_AS_HARD
1070
     0
  0
DICTIONARY
  5
16
102
{ACAD_REACTORS
330
C
102
}
330
C
100
AcDbDictionary
  3
STANDARD
350
17
1001
ACAD
1000
TREAT_AS_HARD
1070
     0
1000
TREAT_AS_HARD
1070
     0
1000
TREAT_AS_HARD
1070
     0
  0
DICTIONARY
  5
18
102
{ACAD_REACTORS
330
C
102
}
330
C
100
AcDbDictionary
1001
ACAD
1000
TREAT_AS_HARD
1070
     0
1000
TREAT_AS_HARD
1070
     0
1000
TREAT_AS_HARD
1070
     0
  0
XRECORD
  5
241
102
{ACAD_REACTORS
330
195
102
}
330
195
100
AcDbXrecord
340
1E
  0
XRECORD
  5
240
102
{ACAD_REACTORS
330
193
102
}
330
193
100
AcDbXrecord
340
1A
  0
MLINESTYLE
  5
17
102
{ACAD_REACTORS
330
16
102
}
330
16
100
AcDbMlineStyle
  2
STANDARD
 70
     0
  3

 62
   256
 51
90.0
 52
90.0
 71
     2
 49
0.5
 62
   256
  6
BYLAYER
 49
-0.5
 62
   256
  6
BYLAYER
  0
ENDSEC
  0
EOF
