  0
SECTION
  2
HEADER
  9
$ACADVER
  1
AC1012
  9
$DWGCODEPAGE
  3
dos932
  9
$INSBASE
 10
0.0
 20
0.0
 30
0.0
  9
$EXTMIN
 10
0.4894416100455601
 20
0.4902653820932415
 30
-0.0000000349181948
  9
$EXTMAX
 10
144.0134587653603
 20
99.50454747945139
 30
0.0000000814935747
  9
$LIMMIN
 10
0.0
 20
0.0
  9
$LIMMAX
 10
297.0
 20
210.0
  9
$ORTHOMODE
 70
     0
  9
$REGENMODE
 70
     1
  9
$FILLMODE
 70
     1
  9
$QTEXTMODE
 70
     0
  9
$MIRRTEXT
 70
     1
  9
$DRAGMODE
 70
     2
  9
$LTSCALE
 40
15.0
  9
$OSMODE
 70
    37
  9
$ATTMODE
 70
     1
  9
$TEXTSIZE
 40
0.2
  9
$TRACEWID
 40
0.05
  9
$TEXTSTYLE
  7
GOTHIC
  9
$CLAYER
  8
CSLAYER1
  9
$CELTYPE
  6
BYLAYER
  9
$CECOLOR
 62
   256
  9
$CELTSCALE
 40
1.0
  9
$DELOBJ
 70
     1
  9
$DISPSILH
 70
     0
  9
$DIMSCALE
 40
1.0
  9
$DIMASZ
 40
0.18
  9
$DIMEXO
 40
0.0625
  9
$DIMDLI
 40
0.38
  9
$DIMRND
 40
0.0
  9
$DIMDLE
 40
0.0
  9
$DIMEXE
 40
0.18
  9
$DIMTP
 40
0.0
  9
$DIMTM
 40
0.0
  9
$DIMTXT
 40
0.18
  9
$DIMCEN
 40
0.09
  9
$DIMTSZ
 40
0.0
  9
$DIMTOL
 70
     0
  9
$DIMLIM
 70
     0
  9
$DIMTIH
 70
     1
  9
$DIMTOH
 70
     1
  9
$DIMSE1
 70
     0
  9
$DIMSE2
 70
     0
  9
$DIMTAD
 70
     0
  9
$DIMZIN
 70
     0
  9
$DIMBLK
  1

  9
$DIMASO
 70
     1
  9
$DIMSHO
 70
     1
  9
$DIMPOST
  1

  9
$DIMAPOST
  1

  9
$DIMALT
 70
     0
  9
$DIMALTD
 70
     2
  9
$DIMALTF
 40
25.4
  9
$DIMLFAC
 40
1.0
  9
$DIMTOFL
 70
     0
  9
$DIMTVP
 40
0.0
  9
$DIMTIX
 70
     0
  9
$DIMSOXD
 70
     0
  9
$DIMSAH
 70
     0
  9
$DIMBLK1
  1

  9
$DIMBLK2
  1

  9
$DIMSTYLE
  2
STANDARD
  9
$DIMCLRD
 70
     0
  9
$DIMCLRE
 70
     0
  9
$DIMCLRT
 70
     0
  9
$DIMTFAC
 40
1.0
  9
$DIMGAP
 40
0.09
  9
$DIMJUST
 70
     0
  9
$DIMSD1
 70
     0
  9
$DIMSD2
 70
     0
  9
$DIMTOLJ
 70
     1
  9
$DIMTZIN
 70
     0
  9
$DIMALTZ
 70
     0
  9
$DIMALTTZ
 70
     0
  9
$DIMFIT
 70
     3
  9
$DIMUPT
 70
     0
  9
$DIMUNIT
 70
     2
  9
$DIMDEC
 70
     4
  9
$DIMTDEC
 70
     4
  9
$DIMALTU
 70
     2
  9
$DIMALTTD
 70
     2
  9
$DIMTXSTY
  7
STANDARD
  9
$DIMAUNIT
 70
     0
  9
$LUNITS
 70
     2
  9
$LUPREC
 70
     4
  9
$SKETCHINC
 40
0.1
  9
$FILLETRAD
 40
0.0
  9
$AUNITS
 70
     0
  9
$AUPREC
 70
     0
  9
$MENU
  1
ACAD
  9
$ELEVATION
 40
0.0
  9
$PELEVATION
 40
0.0
  9
$THICKNESS
 40
0.0
  9
$LIMCHECK
 70
     0
  9
$BLIPMODE
 70
     1
  9
$CHAMFERA
 40
0.0
  9
$CHAMFERB
 40
0.0
  9
$CHAMFERC
 40
0.0
  9
$CHAMFERD
 40
0.0
  9
$SKPOLY
 70
     0
  9
$TDCREATE
 40
2453453.000000000
  9
$TDUPDATE
 40
2453575.496560891
  9
$TDINDWG
 40
0.0010152199
  9
$TDUSRTIMER
 40
0.0010151042
  9
$USRTIMER
 70
     1
  9
$ANGBASE
 50
0.0
  9
$ANGDIR
 70
     0
  9
$PDMODE
 70
     0
  9
$PDSIZE
 40
0.0
  9
$PLINEWID
 40
0.0
  9
$COORDS
 70
     0
  9
$SPLFRAME
 70
     0
  9
$SPLINETYPE
 70
     6
  9
$SPLINESEGS
 70
     8
  9
$ATTDIA
 70
     0
  9
$ATTREQ
 70
     1
  9
$HANDLING
 70
 22529
  9
$HANDSEED
  5
182
  9
$SURFTAB1
 70
     6
  9
$SURFTAB2
 70
     6
  9
$SURFTYPE
 70
     6
  9
$SURFU
 70
     6
  9
$SURFV
 70
     6
  9
$UCSNAME
  2

  9
$UCSORG
 10
0.0
 20
0.0
 30
0.0
  9
$UCSXDIR
 10
1.0
 20
0.0
 30
0.0
  9
$UCSYDIR
 10
0.0
 20
1.0
 30
0.0
  9
$PUCSNAME
  2

  9
$PUCSORG
 10
0.0
 20
0.0
 30
0.0
  9
$PUCSXDIR
 10
1.0
 20
0.0
 30
0.0
  9
$PUCSYDIR
 10
0.0
 20
1.0
 30
0.0
  9
$USERI1
 70
     0
  9
$USERI2
 70
     0
  9
$USERI3
 70
     0
  9
$USERI4
 70
     0
  9
$USERI5
 70
     0
  9
$USERR1
 40
0.0
  9
$USERR2
 40
0.0
  9
$USERR3
 40
0.0
  9
$USERR4
 40
0.0
  9
$USERR5
 40
0.0
  9
$WORLDVIEW
 70
     1
  9
$SHADEDGE
 70
     3
  9
$SHADEDIF
 70
    70
  9
$TILEMODE
 70
     1
  9
$MAXACTVP
 70
    64
  9
$PINSBASE
 10
0.0
 20
0.0
 30
0.0
  9
$PLIMCHECK
 70
     0
  9
$PEXTMIN
 10
1.000000000000000E+20
 20
1.000000000000000E+20
 30
1.000000000000000E+20
  9
$PEXTMAX
 10
-1.000000000000000E+20
 20
-1.000000000000000E+20
 30
-1.000000000000000E+20
  9
$PLIMMIN
 10
0.0
 20
0.0
  9
$PLIMMAX
 10
12.0
 20
9.0
  9
$UNITMODE
 70
     0
  9
$VISRETAIN
 70
     1
  9
$PLINEGEN
 70
     0
  9
$PSLTSCALE
 70
     1
  9
$TREEDEPTH
 70
  3020
  9
$PICKSTYLE
 70
     3
  9
$CMLSTYLE
  2
STANDARD
  9
$CMLJUST
 70
     0
  9
$CMLSCALE
 40
1.0
  9
$SAVEIMAGES
 70
     1
  0
ENDSEC
  0
SECTION
  2
CLASSES
  0
CLASS
  1
ACDBDICTIONARYWDFLT
  2
AcDbDictionaryWithDefault
  3
AutoCAD 2000
 90
    32768
280
     0
281
     0
  0
CLASS
  1
ACDBPLACEHOLDER
  2
AcDbPlaceHolder
  3
AutoCAD 2000
 90
    32768
280
     0
281
     0
  0
CLASS
  1
LAYOUT
  2
AcDbLayout
  3
AutoCAD 2000
 90
    32768
280
     0
281
     0
  0
CLASS
  1
DICTIONARYVAR
  2
AcDbDictionaryVar
  3
AutoCAD 2000
 90
    32768
280
     0
281
     0
  0
CLASS
  1
LONG_TRANSACTION
  2
AcDbLongTransaction
  3
AutoCAD 2000
 90
    32768
280
     0
281
     0
  0
CLASS
  1
LWPOLYLINE
  2
AcDbPolyline
  3
AutoCAD 2000
 90
    32768
280
     0
281
     1
  0
CLASS
  1
HATCH
  2
AcDbHatch
  3
AutoCAD 2000
 90
    32768
280
     0
281
     1
  0
CLASS
  1
XRECORD
  2
AcDbXrecord
  3
AutoCAD 2000
 90
    32768
280
     0
281
     0
  0
CLASS
  1
LONG_TRANSACTION
  2
AcDbLongTransaction
  3
AutoCAD 2000
 90
    32768
280
     0
281
     0
  0
CLASS
  1
LWPOLYLINE
  2
AcDbPolyline
  3
AutoCAD 2000
 90
    32768
280
     0
281
     1
  0
CLASS
  1
HATCH
  2
AcDbHatch
  3
AutoCAD 2000
 90
    32768
280
     0
281
     1
  0
CLASS
  1
XRECORD
  2
AcDbXrecord
  3
AutoCAD 2000
 90
    32768
280
     0
281
     0
  0
CLASS
  1
LONG_TRANSACTION
  2
AcDbLongTransaction
  3
AutoCAD 2000
 90
    32768
280
     0
281
     0
  0
CLASS
  1
LWPOLYLINE
  2
AcDbPolyline
  3
AutoCAD 2000
 90
    32768
280
     0
281
     1
  0
CLASS
  1
HATCH
  2
AcDbHatch
  3
AutoCAD 2000
 90
    32768
280
     0
281
     1
  0
CLASS
  1
XRECORD
  2
AcDbXrecord
  3
AutoCAD 2000
 90
    32768
280
     0
281
     0
  0
ENDSEC
  0
SECTION
  2
TABLES
  0
TABLE
  2
VPORT
  5
8
330
0
100
AcDbSymbolTable
 70
     2
  0
VPORT
  5
17F
330
8
100
AcDbSymbolTableRecord
100
AcDbViewportTableRecord
  2
*ACTIVE
 70
     0
 10
0.0
 20
0.0
 11
1.0
 21
1.0
 12
72.25145018770297
 22
49.99740643077231
 13
0.0
 23
0.0
 14
1.0
 24
1.0
 15
0.0
 25
0.0
 16
0.0
 26
0.0
 36
1.0
 17
0.0
 27
0.0
 37
0.0
 40
99.73264448258687
 41
1.458837772397094
 42
50.0
 43
0.0
 44
0.0
 50
0.0
 51
0.0
 71
     0
 72
   100
 73
     1
 74
     1
 75
     0
 76
     0
 77
     0
 78
     0
  0
ENDTAB
  0
TABLE
  2
LTYPE
  5
5
330
0
100
AcDbSymbolTable
 70
     3
  0
LTYPE
  5
13
330
5
100
AcDbSymbolTableRecord
100
AcDbLinetypeTableRecord
  2
BYBLOCK
 70
     0
  3

 72
    65
 73
     0
 40
0.0
  0
LTYPE
  5
14
330
5
100
AcDbSymbolTableRecord
100
AcDbLinetypeTableRecord
  2
BYLAYER
 70
     0
  3

 72
    65
 73
     0
 40
0.0
  0
LTYPE
  5
15
330
5
100
AcDbSymbolTableRecord
100
AcDbLinetypeTableRecord
  2
CONTINUOUS
 70
     0
  3
Solid line
 72
    65
 73
     0
 40
0.0
  0
LTYPE
  5
25
330
5
100
AcDbSymbolTableRecord
100
AcDbLinetypeTableRecord
  2
DOT
 70
     0
  3
...............................................
 72
    65
 73
     2
 40
0.25
 49
0.0
 74
     0
 49
-0.25
 74
     0
  0
LTYPE
  5
28
330
5
100
AcDbSymbolTableRecord
100
AcDbLinetypeTableRecord
  2
CENTER
 70
     0
  3
____ _ ____ _ ____ _ ____ _ ____ _ ____ _ ____ 
 72
    65
 73
     4
 40
2.0
 49
1.25
 74
     0
 49
-0.25
 74
     0
 49
0.25
 74
     0
 49
-0.25
 74
     0
  0
ENDTAB
  0
TABLE
  2
LAYER
  5
2
330
0
100
AcDbSymbolTable
 70
     3
  0
LAYER
  5
10
330
2
100
AcDbSymbolTableRecord
100
AcDbLayerTableRecord
  2
0
 70
     0
 62
     7
  6
CONTINUOUS
  0
LAYER
  5
22
330
2
100
AcDbSymbolTableRecord
100
AcDbLayerTableRecord
  2
CSLAYER1
 70
     0
 62
     7
  6
CONTINUOUS
  0
LAYER
  5
11F
330
2
100
AcDbSymbolTableRecord
100
AcDbLayerTableRecord
  2
DEFPOINTS
 70
     0
 62
     7
  6
CONTINUOUS
  0
ENDTAB
  0
TABLE
  2
STYLE
  5
3
330
0
100
AcDbSymbolTable
 70
     3
  0
STYLE
  5
11
330
3
100
AcDbSymbolTableRecord
100
AcDbTextStyleTableRecord
  2
STANDARD
 70
     0
 40
0.0
 41
1.0
 50
0.0
 71
     0
 42
0.2
  3
txt
  4
extfont.shx
  0
STYLE
  5
3A
330
3
100
AcDbSymbolTableRecord
100
AcDbTextStyleTableRecord
  2
FX_FONT
 70
     0
 40
1.0
 41
1.0
 50
0.0
 71
     0
 42
1.0
  3
monotxt
  4
bigfont
  0
STYLE
  5
117
330
3
100
AcDbSymbolTableRecord
100
AcDbTextStyleTableRecord
  2
GOTHIC
 70
     0
 40
0.0
 41
1.0
 50
0.0
 71
     0
 42
0.2
  3
txt.shx
  4
extfont.shx
  0
ENDTAB
  0
TABLE
  2
VIEW
  5
6
330
0
100
AcDbSymbolTable
 70
     0
  0
ENDTAB
  0
TABLE
  2
UCS
  5
7
330
0
100
AcDbSymbolTable
 70
     0
  0
ENDTAB
  0
TABLE
  2
APPID
  5
9
330
0
100
AcDbSymbolTable
 70
     1
  0
APPID
  5
12
330
9
100
AcDbSymbolTableRecord
100
AcDbRegAppTableRecord
  2
ACAD
 70
     0
  0
ENDTAB
  0
TABLE
  2
DIMSTYLE
  5
A
330
0
100
AcDbSymbolTable
 70
     1
  0
DIMSTYLE
105
114
330
A
100
AcDbSymbolTableRecord
100
AcDbDimStyleTableRecord
  2
STANDARD
 70
     0
  3

  4

  5

  6

  7

 40
1.0
 41
0.18
 42
0.0625
 43
0.38
 44
0.18
 45
0.0
 46
0.0
 47
0.0
 48
0.0
140
0.18
141
0.09
142
0.0
143
25.4
144
1.0
145
0.0
146
1.0
147
0.09
 71
     0
 72
     0
 73
     1
 74
     1
 75
     0
 76
     0
 77
     0
 78
     0
170
     0
171
     2
172
     0
173
     0
174
     0
175
     0
176
     0
177
     0
178
     0
270
     2
271
     4
272
     4
273
     2
274
     2
340
11
275
     0
280
     0
281
     0
282
     0
283
     1
284
     0
285
     0
286
     0
287
     3
288
     0
  0
ENDTAB
  0
TABLE
  2
BLOCK_RECORD
  5
1
330
0
100
AcDbSymbolTable
 70
    11
  0
BLOCK_RECORD
  5
1E
102
{ACAD_XDICTIONARY
360
11D
102
}
330
1
100
AcDbSymbolTableRecord
100
AcDbBlockTableRecord
  2
*MODEL_SPACE
  0
BLOCK_RECORD
  5
1A
102
{ACAD_XDICTIONARY
360
11B
102
}
330
1
100
AcDbSymbolTableRecord
100
AcDbBlockTableRecord
  2
*PAPER_SPACE
  0
BLOCK_RECORD
  5
3F
330
1
100
AcDbSymbolTableRecord
100
AcDbBlockTableRecord
  2
FXDIM0000
  0
BLOCK_RECORD
  5
47
330
1
100
AcDbSymbolTableRecord
100
AcDbBlockTableRecord
  2
*D1
  0
BLOCK_RECORD
  5
54
330
1
100
AcDbSymbolTableRecord
100
AcDbBlockTableRecord
  2
*D2
  0
BLOCK_RECORD
  5
5F
330
1
100
AcDbSymbolTableRecord
100
AcDbBlockTableRecord
  2
FXDIM0001
  0
BLOCK_RECORD
  5
69
330
1
100
AcDbSymbolTableRecord
100
AcDbBlockTableRecord
  2
FXDIM0002
  0
BLOCK_RECORD
  5
73
330
1
100
AcDbSymbolTableRecord
100
AcDbBlockTableRecord
  2
*D5
  0
BLOCK_RECORD
  5
7E
330
1
100
AcDbSymbolTableRecord
100
AcDbBlockTableRecord
  2
*D6
  0
BLOCK_RECORD
  5
85
330
1
100
AcDbSymbolTableRecord
100
AcDbBlockTableRecord
  2
*D7
  0
BLOCK_RECORD
  5
90
330
1
100
AcDbSymbolTableRecord
100
AcDbBlockTableRecord
  2
*D8
  0
BLOCK_RECORD
  5
9B
330
1
100
AcDbSymbolTableRecord
100
AcDbBlockTableRecord
  2
*D9
  0
BLOCK_RECORD
  5
120
330
1
100
AcDbSymbolTableRecord
100
AcDbBlockTableRecord
  2
*D10
  0
ENDTAB
  0
ENDSEC
  0
SECTION
  2
BLOCKS
  0
BLOCK
  5
1F
330
1E
100
AcDbEntity
  8
0
100
AcDbBlockBegin
  2
*MODEL_SPACE
 70
     0
 10
0.0
 20
0.0
 30
0.0
  3
*MODEL_SPACE
  1

  0
ENDBLK
  5
20
330
1E
100
AcDbEntity
  8
0
100
AcDbBlockEnd
  0
BLOCK
  5
1B
330
1A
100
AcDbEntity
 67
     1
  8
0
100
AcDbBlockBegin
  2
*PAPER_SPACE
 70
     0
 10
0.0
 20
0.0
 30
0.0
  3
*PAPER_SPACE
  1

  0
ENDBLK
  5
1C
330
1A
100
AcDbEntity
 67
     1
  8
0
100
AcDbBlockEnd
  0
BLOCK
  5
40
330
3F
100
AcDbEntity
  8
0
100
AcDbBlockBegin
  2
FXDIM0000
 70
     0
 10
0.0
 20
0.0
 30
0.0
  3
FXDIM0000
  1

  0
LINE
  5
41
330
3F
100
AcDbEntity
  8
CSLAYER1
  6
CONTINUOUS
 62
     4
100
AcDbLine
 10
153.9388419999999
 20
128.0397039999999
 30
0.0
 11
147.296078
 21
103.248571
 31
0.0
  0
LINE
  5
42
330
3F
100
AcDbEntity
  8
CSLAYER1
  6
CONTINUOUS
 62
     4
100
AcDbLine
 10
153.9388419999999
 20
128.0397039999999
 30
0.0
 11
153.9388419999999
 21
125.0397039999999
 31
0.0
  0
LINE
  5
43
330
3F
100
AcDbEntity
  8
CSLAYER1
  6
CONTINUOUS
 62
     4
100
AcDbLine
 10
153.9388419999999
 20
128.0397039999999
 30
0.0
 11
152.438842
 21
125.441628
 31
0.0
  0
LINE
  5
44
330
3F
100
AcDbEntity
  8
CSLAYER1
  6
CONTINUOUS
 62
     4
100
AcDbLine
 10
147.296078
 20
103.248571
 30
0.0
 11
127.296078
 21
103.248571
 31
0.0
  0
TEXT
  5
45
330
3F
100
AcDbEntity
  8
CSLAYER1
 62
     4
100
AcDbText
 10
128.1999969999999
 20
104.2485729999999
 30
0.0
 40
3.0
  1
%%c4.1キリ
 41
1.01123595505618
 51
15.0
  7
FX_FONT
 72
     5
 11
146.1999969999999
 21
104.2485729999999
 31
0.0
100
AcDbText
  0
ENDBLK
  5
46
330
3F
100
AcDbEntity
  8
0
100
AcDbBlockEnd
  0
BLOCK
  5
48
330
47
100
AcDbEntity
  8
0
100
AcDbBlockBegin
  2
*D1
 70
     1
 10
0.0
 20
0.0
 30
0.0
  3
*D1
  1

  0
TEXT
  5
49
330
47
100
AcDbEntity
  8
CSLAYER1
 62
     4
100
AcDbText
 10
102.3077159999999
 20
76.859711
 30
0.0
 40
3.0
  1
7  
 50
90.0
 41
1.363636363636363
 51
15.0
  7
FX_FONT
 72
     5
 11
102.3077159999999
 21
85.859711
 31
0.0
100
AcDbText
  0
TEXT
  5
4A
330
47
100
AcDbEntity
  8
CSLAYER1
 62
     4
100
AcDbText
 10
100.807716
 20
85.859711
 30
0.0
 40
1.5
  1
  0
 50
90.0
 41
1.607142857142857
 51
15.0
  7
FX_FONT
 72
     5
 11
100.807716
 21
90.35971100000001
 31
0.0
100
AcDbText
  0
TEXT
  5
4B
330
47
100
AcDbEntity
  8
CSLAYER1
 62
     4
100
AcDbText
 10
102.3077159999999
 20
85.859711
 30
0.0
 40
1.5
  1
-0.15
 50
90.0
 41
1.071428571428571
 51
15.0
  7
FX_FONT
 72
     5
 11
102.3077159999999
 21
93.359711
 31
0.0
100
AcDbText
  0
LINE
  5
4C
330
47
100
AcDbEntity
  8
CSLAYER1
  6
CONTINUOUS
 62
     4
100
AcDbLine
 10
114.0
 20
71.0
 30
0.0
 11
102.307714
 21
71.0
 31
0.0
  0
LINE
  5
4D
330
47
100
AcDbEntity
  8
CSLAYER1
  6
CONTINUOUS
 62
     4
100
AcDbLine
 10
114.0
 20
85.0
 30
0.0
 11
102.307714
 21
85.0
 31
0.0
  0
LINE
  5
4E
330
47
100
AcDbEntity
  8
CSLAYER1
  6
CONTINUOUS
 62
     4
100
AcDbLine
 10
103.307714
 20
71.0
 30
0.0
 11
103.307714
 21
85.0
 31
0.0
  0
LINE
  5
4F
330
47
100
AcDbEntity
  8
CSLAYER1
  6
CONTINUOUS
 62
     4
100
AcDbLine
 10
103.307714
 20
71.0
 30
0.0
 11
102.531257
 21
73.897777
 31
0.0
  0
LINE
  5
50
330
47
100
AcDbEntity
  8
CSLAYER1
  6
CONTINUOUS
 62
     4
100
AcDbLine
 10
103.307714
 20
71.0
 30
0.0
 11
104.084171
 21
73.897777
 31
0.0
  0
LINE
  5
51
330
47
100
AcDbEntity
  8
CSLAYER1
  6
CONTINUOUS
 62
     4
100
AcDbLine
 10
103.307714
 20
85.0
 30
0.0
 11
102.531257
 21
82.10222299999998
 31
0.0
  0
LINE
  5
52
330
47
100
AcDbEntity
  8
CSLAYER1
  6
CONTINUOUS
 62
     4
100
AcDbLine
 10
103.307714
 20
85.0
 30
0.0
 11
104.084171
 21
82.10222299999998
 31
0.0
  0
ENDBLK
  5
53
330
47
100
AcDbEntity
  8
0
100
AcDbBlockEnd
  0
BLOCK
  5
55
330
54
100
AcDbEntity
  8
0
100
AcDbBlockBegin
  2
*D2
 70
     1
 10
0.0
 20
0.0
 30
0.0
  3
*D2
  1

  0
TEXT
  5
56
330
54
100
AcDbEntity
  8
CSLAYER1
 62
     4
100
AcDbText
 10
99.788574
 20
121.5
 30
0.0
 40
3.0
  1
14.5~16
 50
90.0
 41
1.05
 51
15.0
  7
FX_FONT
 72
     5
 11
99.788574
 21
142.5
 31
0.0
100
AcDbText
  0
LINE
  5
57
330
54
100
AcDbEntity
  8
CSLAYER1
  6
CONTINUOUS
 62
     4
100
AcDbLine
 10
135.3878789999999
 20
116.0
 30
0.0
 11
99.78857099999999
 21
116.0
 31
0.0
  0
LINE
  5
58
330
54
100
AcDbEntity
  8
CSLAYER1
  6
CONTINUOUS
 62
     4
100
AcDbLine
 10
136.3187879999999
 20
148.0
 30
0.0
 11
99.78857099999999
 21
148.0
 31
0.0
  0
LINE
  5
59
330
54
100
AcDbEntity
  8
CSLAYER1
  6
CONTINUOUS
 62
     4
100
AcDbLine
 10
100.7885709999999
 20
116.0
 30
0.0
 11
100.7885709999999
 21
148.0
 31
0.0
  0
LINE
  5
5A
330
54
100
AcDbEntity
  8
CSLAYER1
  6
CONTINUOUS
 62
     4
100
AcDbLine
 10
100.7885709999999
 20
116.0
 30
0.0
 11
100.012114
 21
118.897777
 31
0.0
  0
LINE
  5
5B
330
54
100
AcDbEntity
  8
CSLAYER1
  6
CONTINUOUS
 62
     4
100
AcDbLine
 10
100.7885709999999
 20
116.0
 30
0.0
 11
101.565029
 21
118.897777
 31
0.0
  0
LINE
  5
5C
330
54
100
AcDbEntity
  8
CSLAYER1
  6
CONTINUOUS
 62
     4
100
AcDbLine
 10
100.7885709999999
 20
148.0
 30
0.0
 11
100.012114
 21
145.102223
 31
0.0
  0
LINE
  5
5D
330
54
100
AcDbEntity
  8
CSLAYER1
  6
CONTINUOUS
 62
     4
100
AcDbLine
 10
100.7885709999999
 20
148.0
 30
0.0
 11
101.565029
 21
145.102223
 31
0.0
  0
ENDBLK
  5
5E
330
54
100
AcDbEntity
  8
0
100
AcDbBlockEnd
  0
BLOCK
  5
60
330
5F
100
AcDbEntity
  8
0
100
AcDbBlockBegin
  2
FXDIM0001
 70
     0
 10
0.0
 20
0.0
 30
0.0
  3
FXDIM0001
  1

  0
LINE
  5
61
330
5F
100
AcDbEntity
  8
CSLAYER1
  6
CONTINUOUS
 62
     4
100
AcDbLine
 10
165.0
 20
85.0
 30
0.0
 11
167.0
 21
88.46410199999999
 31
0.0
  0
LINE
  5
62
330
5F
100
AcDbEntity
  8
CSLAYER1
  6
CONTINUOUS
 62
     4
100
AcDbLine
 10
163.0
 20
88.46410199999999
 30
0.0
 11
175.0
 21
88.46410199999999
 31
0.0
  0
LINE
  5
63
330
5F
100
AcDbEntity
  8
CSLAYER1
  6
CONTINUOUS
 62
     4
100
AcDbLine
 10
163.0
 20
88.46410199999999
 30
0.0
 11
165.0
 21
85.0
 31
0.0
  0
LINE
  5
64
330
5F
100
AcDbEntity
  8
CSLAYER1
  6
CONTINUOUS
 62
     4
100
AcDbLine
 10
169.0
 20
85.0
 30
0.0
 11
171.0
 21
88.46410199999999
 31
0.0
  0
LINE
  5
65
330
5F
100
AcDbEntity
  8
CSLAYER1
  6
CONTINUOUS
 62
     4
100
AcDbLine
 10
167.0
 20
88.46410199999999
 30
0.0
 11
169.0
 21
85.0
 31
0.0
  0
LINE
  5
66
330
5F
100
AcDbEntity
  8
CSLAYER1
  6
CONTINUOUS
 62
     4
100
AcDbLine
 10
173.0
 20
85.0
 30
0.0
 11
175.0
 21
88.46410199999999
 31
0.0
  0
LINE
  5
67
330
5F
100
AcDbEntity
  8
CSLAYER1
  6
CONTINUOUS
 62
     4
100
AcDbLine
 10
171.0
 20
88.46410199999999
 30
0.0
 11
173.0
 21
85.0
 31
0.0
  0
ENDBLK
  5
68
330
5F
100
AcDbEntity
  8
0
100
AcDbBlockEnd
  0
BLOCK
  5
6A
330
69
100
AcDbEntity
  8
0
100
AcDbBlockBegin
  2
FXDIM0002
 70
     0
 10
0.0
 20
0.0
 30
0.0
  3
FXDIM0002
  1

  0
LINE
  5
6B
330
69
100
AcDbEntity
  8
CSLAYER1
  6
CONTINUOUS
 62
     4
100
AcDbLine
 10
165.5999999999997
 20
71.0
 30
0.0
 11
163.5999999999999
 21
67.535898
 31
0.0
  0
LINE
  5
6C
330
69
100
AcDbEntity
  8
CSLAYER1
  6
CONTINUOUS
 62
     4
100
AcDbLine
 10
163.5999999999999
 20
67.535898
 30
0.0
 11
175.6
 21
67.535898
 31
0.0
  0
LINE
  5
6D
330
69
100
AcDbEntity
  8
CSLAYER1
  6
CONTINUOUS
 62
     4
100
AcDbLine
 10
167.5999999999999
 20
67.535898
 30
0.0
 11
165.5999999999997
 21
71.0
 31
0.0
  0
LINE
  5
6E
330
69
100
AcDbEntity
  8
CSLAYER1
  6
CONTINUOUS
 62
     4
100
AcDbLine
 10
169.5999999999999
 20
71.0
 30
0.0
 11
167.5999999999999
 21
67.535898
 31
0.0
  0
LINE
  5
6F
330
69
100
AcDbEntity
  8
CSLAYER1
  6
CONTINUOUS
 62
     4
100
AcDbLine
 10
171.6
 20
67.535898
 30
0.0
 11
169.5999999999999
 21
71.0
 31
0.0
  0
LINE
  5
70
330
69
100
AcDbEntity
  8
CSLAYER1
  6
CONTINUOUS
 62
     4
100
AcDbLine
 10
173.5999999999999
 20
71.0
 30
0.0
 11
171.6
 21
67.535898
 31
0.0
  0
LINE
  5
71
330
69
100
AcDbEntity
  8
CSLAYER1
  6
CONTINUOUS
 62
     4
100
AcDbLine
 10
175.6
 20
67.535898
 30
0.0
 11
173.5999999999999
 21
71.0
 31
0.0
  0
ENDBLK
  5
72
330
69
100
AcDbEntity
  8
0
100
AcDbBlockEnd
  0
BLOCK
  5
74
330
73
100
AcDbEntity
  8
0
100
AcDbBlockBegin
  2
*D5
 70
     1
 10
0.0
 20
0.0
 30
0.0
  3
*D5
  1

  0
TEXT
  5
75
330
73
100
AcDbEntity
  8
CSLAYER1
 62
     4
100
AcDbText
 10
106.9018169999999
 20
127.5
 30
0.0
 40
3.0
  1
(8)
 50
90.0
 41
1.285714285714273
 51
15.0
  7
FX_FONT
 72
     5
 11
106.9018169999999
 21
136.4999999999999
 31
0.0
100
AcDbText
  0
LINE
  5
76
330
73
100
AcDbEntity
  8
CSLAYER1
  6
CONTINUOUS
 62
     4
100
AcDbLine
 10
114.0
 20
123.724957
 30
0.0
 11
106.901818
 21
123.724957
 31
0.0
  0
LINE
  5
77
330
73
100
AcDbEntity
  8
CSLAYER1
  6
CONTINUOUS
 62
     4
100
AcDbLine
 10
114.0
 20
140.2750429999999
 30
0.0
 11
106.901818
 21
140.2750429999999
 31
0.0
  0
LINE
  5
78
330
73
100
AcDbEntity
  8
CSLAYER1
  6
CONTINUOUS
 62
     4
100
AcDbLine
 10
107.901818
 20
123.724957
 30
0.0
 11
107.901818
 21
140.2750429999999
 31
0.0
  0
LINE
  5
79
330
73
100
AcDbEntity
  8
CSLAYER1
  6
CONTINUOUS
 62
     4
100
AcDbLine
 10
107.901818
 20
123.724957
 30
0.0
 11
107.125361
 21
126.622735
 31
0.0
  0
LINE
  5
7A
330
73
100
AcDbEntity
  8
CSLAYER1
  6
CONTINUOUS
 62
     4
100
AcDbLine
 10
107.901818
 20
123.724957
 30
0.0
 11
108.678275
 21
126.622735
 31
0.0
  0
LINE
  5
7B
330
73
100
AcDbEntity
  8
CSLAYER1
  6
CONTINUOUS
 62
     4
100
AcDbLine
 10
107.901818
 20
140.2750429999999
 30
0.0
 11
107.125361
 21
137.377265
 31
0.0
  0
LINE
  5
7C
330
73
100
AcDbEntity
  8
CSLAYER1
  6
CONTINUOUS
 62
     4
100
AcDbLine
 10
107.901818
 20
140.2750429999999
 30
0.0
 11
108.678275
 21
137.377265
 31
0.0
  0
ENDBLK
  5
7D
330
73
100
AcDbEntity
  8
0
100
AcDbBlockEnd
  0
BLOCK
  5
7F
330
7E
100
AcDbEntity
  8
0
100
AcDbBlockBegin
  2
*D6
 70
     1
 10
0.0
 20
0.0
 30
0.0
  3
*D6
  1

  0
TEXT
  5
80
330
7E
100
AcDbEntity
  8
CSLAYER1
 62
     4
100
AcDbText
 10
130.5914919999999
 20
121.914011
 30
0.0
 40
3.0
  1
R25
 50
71.32043636611486
 41
1.124999977700105
 51
15.0
  7
FX_FONT
 72
     5
 11
133.4739679999999
 21
130.4399319999999
 31
0.0
100
AcDbText
  0
LINE
  5
81
330
7E
100
AcDbEntity
  8
CSLAYER1
  6
CONTINUOUS
 62
     4
100
AcDbLine
 10
125.6849439999997
 20
118.633772
 30
0.0
 11
132.1487429999999
 21
137.7526929999999
 31
0.0
  0
LINE
  5
82
330
7E
100
AcDbEntity
  8
CSLAYER1
  6
CONTINUOUS
 62
     4
100
AcDbLine
 10
125.6849439999997
 20
118.633772
 30
0.0
 11
125.877473
 21
121.6275879999999
 31
0.0
  0
LINE
  5
83
330
7E
100
AcDbEntity
  8
CSLAYER1
  6
CONTINUOUS
 62
     4
100
AcDbLine
 10
125.6849439999997
 20
118.633772
 30
0.0
 11
127.348587
 21
121.1302279999999
 31
0.0
  0
ENDBLK
  5
84
330
7E
100
AcDbEntity
  8
0
100
AcDbBlockEnd
  0
BLOCK
  5
86
330
85
100
AcDbEntity
  8
0
100
AcDbBlockBegin
  2
*D7
 70
     1
 10
0.0
 20
0.0
 30
0.0
  3
*D7
  1

  0
TEXT
  5
87
330
85
100
AcDbEntity
  8
CSLAYER1
 62
     4
100
AcDbText
 10
117.8220049999999
 20
108.084942
 30
0.0
 40
3.0
  1
35%%d
 50
17.49999796421086
 41
1.285714337707259
 51
15.0
  7
FX_FONT
 72
     5
 11
126.405458
 21
110.791294
 31
0.0
100
AcDbText
  0
ARC
  5
88
330
85
100
AcDbEntity
  8
CSLAYER1
  6
CONTINUOUS
 62
     4
100
AcDbCircle
 10
115.0
 20
132.0
 30
0.0
 40
24.656794
100
AcDbArc
 50
270.0
 51
305.0
  0
LINE
  5
89
330
85
100
AcDbEntity
  8
CSLAYER1
  6
CONTINUOUS
 62
     4
100
AcDbLine
 10
115.0
 20
107.343206
 30
0.0
 11
117.897777
 21
108.1196629999999
 31
0.0
  0
LINE
  5
8A
330
85
100
AcDbEntity
  8
CSLAYER1
  6
CONTINUOUS
 62
     4
100
AcDbLine
 10
115.0
 20
107.343206
 30
0.0
 11
117.897777
 21
106.566749
 31
0.0
  0
LINE
  5
8B
330
85
100
AcDbEntity
  8
CSLAYER1
  6
CONTINUOUS
 62
     4
100
AcDbLine
 10
129.142556
 20
111.802337
 30
0.0
 11
127.2141929999999
 21
109.504204
 31
0.0
  0
LINE
  5
8C
330
85
100
AcDbEntity
  8
CSLAYER1
  6
CONTINUOUS
 62
     4
100
AcDbLine
 10
129.142556
 20
111.802337
 30
0.0
 11
126.323478
 21
110.776277
 31
0.0
  0
LINE
  5
8D
330
85
100
AcDbEntity
  8
CSLAYER1
  6
CONTINUOUS
 62
     4
100
AcDbLine
 10
115.0
 20
122.724957
 30
0.0
 11
115.0
 21
106.343206
 31
0.0
  0
LINE
  5
8E
330
85
100
AcDbEntity
  8
CSLAYER1
  6
CONTINUOUS
 62
     4
100
AcDbLine
 10
117.31011
 20
128.7008209999999
 30
0.0
 11
129.716132
 21
110.983185
 31
0.0
  0
ENDBLK
  5
8F
330
85
100
AcDbEntity
  8
0
100
AcDbBlockEnd
  0
BLOCK
  5
91
330
90
100
AcDbEntity
  8
0
100
AcDbBlockBegin
  2
*D8
 70
     1
 10
0.0
 20
0.0
 30
0.0
  3
*D8
  1

  0
TEXT
  5
92
330
90
100
AcDbEntity
  8
CSLAYER1
 62
     4
100
AcDbText
 10
132.0
 20
167.9972379999998
 30
0.0
 40
3.0
  1
20
 41
1.2
 51
15.0
  7
FX_FONT
 72
     5
 11
138.0
 21
167.9972379999998
 31
0.0
100
AcDbText
  0
LINE
  5
93
330
90
100
AcDbEntity
  8
CSLAYER1
  6
CONTINUOUS
 62
     4
100
AcDbLine
 10
115.0
 20
166.997237
 30
0.0
 11
155.0
 21
166.997237
 31
0.0
  0
LINE
  5
94
330
90
100
AcDbEntity
  8
CSLAYER1
  6
CONTINUOUS
 62
     4
100
AcDbLine
 10
115.0
 20
166.997237
 30
0.0
 11
117.897777
 21
167.773695
 31
0.0
  0
LINE
  5
95
330
90
100
AcDbEntity
  8
CSLAYER1
  6
CONTINUOUS
 62
     4
100
AcDbLine
 10
115.0
 20
166.997237
 30
0.0
 11
117.897777
 21
166.22078
 31
0.0
  0
LINE
  5
96
330
90
100
AcDbEntity
  8
CSLAYER1
  6
CONTINUOUS
 62
     4
100
AcDbLine
 10
155.0
 20
166.997237
 30
0.0
 11
152.1022229999998
 21
167.773695
 31
0.0
  0
LINE
  5
97
330
90
100
AcDbEntity
  8
CSLAYER1
  6
CONTINUOUS
 62
     4
100
AcDbLine
 10
155.0
 20
166.997237
 30
0.0
 11
152.1022229999998
 21
166.22078
 31
0.0
  0
LINE
  5
98
330
90
100
AcDbEntity
  8
CSLAYER1
  6
CONTINUOUS
 62
     4
100
AcDbLine
 10
115.0
 20
141.2750429999998
 30
0.0
 11
115.0
 21
167.997237
 31
0.0
  0
LINE
  5
99
330
90
100
AcDbEntity
  8
CSLAYER1
  6
CONTINUOUS
 62
     4
100
AcDbLine
 10
155.0
 20
154.3129439999999
 30
0.0
 11
155.0
 21
167.997237
 31
0.0
  0
ENDBLK
  5
9A
330
90
100
AcDbEntity
  8
0
100
AcDbBlockEnd
  0
BLOCK
  5
9C
330
9B
100
AcDbEntity
  8
0
100
AcDbBlockBegin
  2
*D9
 70
     1
 10
0.0
 20
0.0
 30
0.0
  3
*D9
  1

  0
TEXT
  5
9D
330
9B
100
AcDbEntity
  8
CSLAYER1
 62
     4
100
AcDbText
 10
19.162601
 20
29.223206
 30
0.0
 40
3.0
  1
3.5
 50
90.0
 41
1.124999999999998
 51
15.0
  7
FX_FONT
 72
     5
 11
19.162601
 21
38.22320599999999
 31
0.0
100
AcDbText
  0
LINE
  5
9E
330
9B
100
AcDbEntity
  8
CSLAYER1
  6
CONTINUOUS
 62
     4
100
AcDbLine
 10
20.55382499999999
 20
30.866173
 30
0.0
 11
20.55382499999999
 21
37.86617299999999
 31
0.0
  0
LINE
  5
9F
330
9B
100
AcDbEntity
  8
CSLAYER1
  6
CONTINUOUS
 62
     4
100
AcDbLine
 10
33.677001
 20
30.866173
 30
0.0
 11
19.55382499999998
 21
30.866173
 31
0.0
  0
LINE
  5
A0
330
9B
100
AcDbEntity
  8
CSLAYER1
  6
CONTINUOUS
 62
     4
100
AcDbLine
 10
33.677001
 20
37.86617299999999
 30
0.0
 11
19.55382499999998
 21
37.86617299999999
 31
0.0
  0
LINE
  5
A1
330
9B
100
AcDbEntity
  8
CSLAYER1
  6
CONTINUOUS
 62
     4
100
AcDbLine
 10
20.55382499999999
 20
24.866173
 30
0.0
 11
20.55382499999999
 21
30.866173
 31
0.0
  0
LINE
  5
A2
330
9B
100
AcDbEntity
  8
CSLAYER1
  6
CONTINUOUS
 62
     4
100
AcDbLine
 10
20.55382499999999
 20
30.866173
 30
0.0
 11
19.77736799999998
 21
27.968396
 31
0.0
  0
LINE
  5
A3
330
9B
100
AcDbEntity
  8
CSLAYER1
  6
CONTINUOUS
 62
     4
100
AcDbLine
 10
20.55382499999999
 20
30.866173
 30
0.0
 11
21.33028299999998
 21
27.968396
 31
0.0
  0
LINE
  5
A4
330
9B
100
AcDbEntity
  8
CSLAYER1
  6
CONTINUOUS
 62
     4
100
AcDbLine
 10
20.55382499999999
 20
37.86617299999999
 30
0.0
 11
20.55382499999999
 21
43.866173
 31
0.0
  0
LINE
  5
A5
330
9B
100
AcDbEntity
  8
CSLAYER1
  6
CONTINUOUS
 62
     4
100
AcDbLine
 10
20.55382499999999
 20
37.86617299999999
 30
0.0
 11
19.77736799999998
 21
40.763951
 31
0.0
  0
LINE
  5
A6
330
9B
100
AcDbEntity
  8
CSLAYER1
  6
CONTINUOUS
 62
     4
100
AcDbLine
 10
20.55382499999999
 20
37.86617299999999
 30
0.0
 11
21.33028299999998
 21
40.763951
 31
0.0
  0
ENDBLK
  5
A7
330
9B
100
AcDbEntity
  8
0
100
AcDbBlockEnd
  0
BLOCK
  5
12D
330
120
100
AcDbEntity
  8
0
100
AcDbBlockBegin
  2
*D10
 70
     1
 10
0.0
 20
0.0
 30
0.0
  3
*D10
  1

  0
LINE
  5
121
330
120
100
AcDbEntity
  8
CSLAYER1
 62
     0
100
AcDbLine
 10
115.0
 20
123.6624569999999
 30
0.0
 11
115.0
 21
107.1632063567687
 31
0.0
  0
LINE
  5
122
330
120
100
AcDbEntity
  8
CSLAYER1
 62
     0
100
AcDbLine
 10
116.7723815189555
 20
129.4687759914088
 30
0.0
 11
129.245796283456
 21
111.6548873995075
 31
0.0
  0
ARC
  5
123
330
120
100
AcDbEntity
  8
CSLAYER1
 62
     0
100
AcDbCircle
 10
115.0
 20
132.0
 30
0.0
 40
24.65679364323114
100
AcDbArc
 50
270.4182726822791
 51
286.5812810746244
  0
ARC
  5
124
330
120
100
AcDbEntity
  8
CSLAYER1
 62
     0
100
AcDbCircle
 10
115.0
 20
132.0
 30
0.0
 40
24.65679364323114
100
AcDbArc
 50
288.4233785155397
 51
304.5817180107214
  0
SOLID
  5
125
330
120
100
AcDbEntity
  8
CSLAYER1
 62
     0
100
AcDbTrace
 10
115.1801083041879
 20
107.3138635763529
 30
0.0
 11
115.1798892976099
 21
107.3738631766526
 31
0.0
 12
115.0
 22
107.3432063567688
 32
0.0
 13
115.0
 23
107.3432063567688
 33
0.0
  0
SOLID
  5
126
330
120
100
AcDbEntity
  8
CSLAYER1
 62
     0
100
AcDbTrace
 10
128.9776118208009
 20
111.7242671454611
 30
0.0
 11
129.0118467700332
 21
111.6749927276454
 31
0.0
 12
129.1425525488637
 22
111.8023347842501
 32
0.0
 13
129.1425525488637
 23
111.8023347842501
 33
0.0
  0
MTEXT
  5
127
330
120
100
AcDbEntity
  8
CSLAYER1
 62
     0
100
AcDbMText
 10
122.4144389357884
 20
108.4843973491567
 30
0.0
 40
0.18
 41
0.0
 71
     5
 72
     1
  1
\A1;35°
1001
ACAD
1000
MTEXTBEGIN
1070
    73
1070
     1
1070
    44
1040
1.0
1070
    74
1070
     0
1000
MTEXTEND
1000
MTEXTBEGIN
1070
    73
1070
     1
1070
    44
1040
1.0
1070
    74
1070
     0
1000
MTEXTEND
  0
POINT
  5
128
330
120
100
AcDbEntity
  8
DEFPOINTS
 62
     0
100
AcDbPoint
 10
119.9860356445426
 20
107.8526001127195
 30
0.0
  0
POINT
  5
129
330
120
100
AcDbEntity
  8
DEFPOINTS
 62
     0
100
AcDbPoint
 10
115.0
 20
132.0
 30
0.0
  0
POINT
  5
12A
330
120
100
AcDbEntity
  8
DEFPOINTS
 62
     0
100
AcDbPoint
 10
116.7365329999999
 20
129.519973
 30
0.0
  0
POINT
  5
12B
330
120
100
AcDbEntity
  8
DEFPOINTS
 62
     0
100
AcDbPoint
 10
115.0
 20
132.0
 30
0.0
  0
POINT
  5
12C
330
120
100
AcDbEntity
  8
DEFPOINTS
 62
     0
100
AcDbPoint
 10
115.0
 20
123.7249569999999
 30
0.0
  0
ENDBLK
  5
12E
330
120
100
AcDbEntity
  8
0
100
AcDbBlockEnd
  0
ENDSEC
  0
SECTION
  2
ENTITIES
  0
POINT
  5
A8
330
1E
100
AcDbEntity
  8
CSLAYER1
 62
     3
100
AcDbPoint
 10
135.4999999999999
 20
26.75
 30
0.0
  0
POINT
  5
A9
330
1E
100
AcDbEntity
  8
CSLAYER1
 62
     3
100
AcDbPoint
 10
125.2499999999999
 20
26.75
 30
0.0
  0
TEXT
  5
AD
330
1E
100
AcDbEntity
  8
CSLAYER1
 62
     3
100
AcDbText
 10
119.0499999999999
 20
25.5
 30
0.0
 40
2.5
  1
刃開キハ
 41
1.110447761194031
  7
FX_FONT
 72
     5
 11
131.45
 21
25.5
 31
0.0
100
AcDbText
  0
TEXT
  5
AE
330
1E
100
AcDbEntity
  8
CSLAYER1
 62
     3
100
AcDbText
 10
131.75
 20
25.5
 30
0.0
 40
2.5
  1
3.5
 41
1.125
  7
FX_FONT
 72
     5
 11
139.25
 21
25.5
 31
0.0
100
AcDbText
  0
TEXT
  5
AF
330
1E
100
AcDbEntity
  8
CSLAYER1
 62
     3
100
AcDbText
 10
122.7
 20
8.625
 30
0.0
 40
1.75
  1
N5AE
 41
1.184415584415585
  7
FX_FONT
 72
     5
 11
130.3
 21
8.625
 31
0.0
100
AcDbText
  0
INSERT
  5
B0
330
1E
100
AcDbEntity
  8
CSLAYER1
100
AcDbBlockReference
  2
FXDIM0001
 10
0.0
 20
0.0
 30
0.0
 41
0.5
 42
0.5
 43
0.5
  0
INSERT
  5
B1
330
1E
100
AcDbEntity
  8
CSLAYER1
100
AcDbBlockReference
  2
FXDIM0002
 10
0.0
 20
0.0
 30
0.0
 41
0.5
 42
0.5
 43
0.5
  0
POINT
  5
B2
330
1E
100
AcDbEntity
  8
CSLAYER1
 62
     3
100
AcDbPoint
 10
126.5
 20
9.5
 30
0.0
  0
LINE
  5
B5
330
1E
100
AcDbEntity
  8
CSLAYER1
  6
CONTINUOUS
 62
     3
100
AcDbLine
 10
119.0
 20
25.0
 30
0.0
 11
139.5
 21
25.0
 31
0.0
  0
LINE
  5
B6
330
1E
100
AcDbEntity
  8
CSLAYER1
  6
CONTINUOUS
 62
     3
100
AcDbLine
 10
57.5
 20
35.5
 30
0.0
 11
57.5
 21
42.5
 31
0.0
  0
LINE
  5
B7
330
1E
100
AcDbEntity
  8
CSLAYER1
  6
CONTINUOUS
 62
     3
100
AcDbLine
 10
57.5
 20
42.5
 30
0.0
 11
114.0
 21
42.5
 31
0.0
  0
LINE
  5
B8
330
1E
100
AcDbEntity
  8
CSLAYER1
  6
CONTINUOUS
 62
     3
100
AcDbLine
 10
114.0
 20
35.5
 30
0.0
 11
57.5
 21
35.5
 31
0.0
  0
LINE
  5
B9
330
1E
100
AcDbEntity
  8
CSLAYER1
  6
CONTINUOUS
 62
     3
100
AcDbLine
 10
69.46650449999999
 20
35.5
 30
0.0
 11
69.46650449999999
 21
38.5
 31
0.0
  0
LINE
  5
BA
330
1E
100
AcDbEntity
  8
CSLAYER1
  6
CONTINUOUS
 62
     3
100
AcDbLine
 10
69.9665045
 20
39.0
 30
0.0
 11
85.03349550000001
 21
39.0
 31
0.0
  0
ARC
  5
BB
330
1E
100
AcDbEntity
  8
CSLAYER1
  6
CONTINUOUS
 62
     3
100
AcDbCircle
 10
85.03349550000001
 20
39.5
 30
0.0
 40
0.5
100
AcDbArc
 50
270.0
 51
0.0
  0
LINE
  5
BC
330
1E
100
AcDbEntity
  8
CSLAYER1
  6
CONTINUOUS
 62
     3
100
AcDbLine
 10
85.5334955
 20
39.5
 30
0.0
 11
85.5334955
 21
42.5
 31
0.0
  0
LINE
  5
BD
330
1E
100
AcDbEntity
  8
CSLAYER1
  6
CONTINUOUS
 62
     3
100
AcDbLine
 10
80.37228149999995
 20
42.5
 30
0.0
 11
80.37228149999995
 21
39.5
 31
0.0
  0
LINE
  5
BE
330
1E
100
AcDbEntity
  8
CSLAYER1
  6
CONTINUOUS
 62
     3
100
AcDbLine
 10
80.37228149999995
 20
39.5
 30
0.0
 11
79.87228149999996
 21
39.0
 31
0.0
  0
LINE
  5
BF
330
1E
100
AcDbEntity
  8
CSLAYER1
  6
CONTINUOUS
 62
     3
100
AcDbLine
 10
75.1277185
 20
39.0
 30
0.0
 11
74.6277185
 21
38.5
 31
0.0
  0
LINE
  5
C0
330
1E
100
AcDbEntity
  8
CSLAYER1
  6
CONTINUOUS
 62
     3
100
AcDbLine
 10
74.6277185
 20
38.5
 30
0.0
 11
74.6277185
 21
35.5
 31
0.0
  0
ARC
  5
C1
330
1E
100
AcDbEntity
  8
CSLAYER1
  6
CONTINUOUS
 62
     3
100
AcDbCircle
 10
69.9665045
 20
38.5
 30
0.0
 40
0.5
100
AcDbArc
 50
90.0
 51
180.0
  0
LINE
  5
C2
330
1E
100
AcDbEntity
  8
CSLAYER1
  6
CONTINUOUS
 62
     3
100
AcDbLine
 10
70.84935149999999
 20
58.0
 30
0.0
 11
82.5
 21
58.0
 31
0.0
  0
LINE
  5
C3
330
1E
100
AcDbEntity
  8
CSLAYER1
  6
CONTINUOUS
 62
     3
100
AcDbLine
 10
82.5
 20
74.0
 30
0.0
 11
70.84935149999999
 21
74.0
 31
0.0
  0
ARC
  5
C4
330
1E
100
AcDbEntity
  8
CSLAYER1
  6
CONTINUOUS
 62
     3
100
AcDbCircle
 10
70.84935149999999
 20
49.0
 30
0.0
 40
25.0
100
AcDbArc
 50
90.0
 51
122.274362
  0
LINE
  5
C5
330
1E
100
AcDbEntity
  8
CSLAYER1
  6
CONTINUOUS
 62
     3
100
AcDbLine
 10
57.5
 20
70.13752149999994
 30
0.0
 11
57.5
 21
61.8624785
 31
0.0
  0
ARC
  5
C6
330
1E
100
AcDbEntity
  8
CSLAYER1
  6
CONTINUOUS
 62
     3
100
AcDbCircle
 10
70.84935149999999
 20
83.0
 30
0.0
 40
25.0
100
AcDbArc
 50
237.7256379999999
 51
270.0
  0
ARC
  5
C7
330
1E
100
AcDbEntity
  8
CSLAYER1
  6
CONTINUOUS
 62
     3
100
AcDbCircle
 10
61.09999999999995
 20
66.0
 30
0.0
 40
3.0
100
AcDbArc
 50
7.662256000000001
 51
155.5853179999999
  0
LINE
  5
C8
330
1E
100
AcDbEntity
  8
CSLAYER1
  6
CONTINUOUS
 62
     3
100
AcDbLine
 10
58.3682665
 20
67.2400135
 30
0.0
 11
57.5
 21
66.0
 31
0.0
  0
LINE
  5
C9
330
1E
100
AcDbEntity
  8
CSLAYER1
  6
CONTINUOUS
 62
     3
100
AcDbLine
 10
57.5
 20
66.0
 30
0.0
 11
58.3682665
 21
64.7599865
 31
0.0
  0
ARC
  5
CA
330
1E
100
AcDbEntity
  8
CSLAYER1
  6
CONTINUOUS
 62
     3
100
AcDbCircle
 10
61.09999999999995
 20
66.0
 30
0.0
 40
3.0
100
AcDbArc
 50
204.4146819999999
 51
352.3377439999998
  0
LINE
  5
CB
330
1E
100
AcDbEntity
  8
CSLAYER1
  6
CONTINUOUS
 62
     3
100
AcDbLine
 10
67.68822049999996
 20
66.4
 30
0.0
 11
70.0074385
 21
73.98581949999995
 31
0.0
  0
ARC
  5
CC
330
1E
100
AcDbEntity
  8
CSLAYER1
  6
CONTINUOUS
 62
     3
100
AcDbCircle
 10
77.5
 20
66.0
 30
0.0
 40
8.5
100
AcDbArc
 50
109.7499229999999
 51
173.684684
  0
CIRCLE
  5
CD
330
1E
100
AcDbEntity
  8
CSLAYER1
  6
CONTINUOUS
 62
     3
100
AcDbCircle
 10
77.5
 20
66.0
 30
0.0
 40
2.049999999999998
  0
CIRCLE
  5
CE
330
1E
100
AcDbEntity
  8
CSLAYER1
  6
CONTINUOUS
 62
     3
100
AcDbCircle
 10
77.5
 20
66.0
 30
0.0
 40
5.5
  0
POINT
  5
CF
330
1E
100
AcDbEntity
  8
CSLAYER1
 62
     3
100
AcDbPoint
 10
61.09999999999995
 20
66.0
 30
0.0
  0
TEXT
  5
D0
330
1E
100
AcDbEntity
  8
CSLAYER1
 62
     4
100
AcDbText
 10
62.72601399999995
 20
68.9319615
 30
0.0
 40
1.5
  1
%%c6
 50
52.41121620175224
 41
1.199999894028597
 51
15.0
  7
FX_FONT
 72
     5
 11
64.55598399999995
 21
71.3091885
 31
0.0
100
AcDbText
  0
LINE
  5
D1
330
1E
100
AcDbEntity
  8
CSLAYER1
  6
CENTER
 62
     4
100
AcDbLine
 10
55.5697145
 20
66.0
 30
0.0
 11
65.0250115
 21
66.0
 31
0.0
  0
LINE
  5
D2
330
1E
100
AcDbEntity
  8
CSLAYER1
  6
CENTER
 62
     4
100
AcDbLine
 10
65.032143
 20
66.0
 30
0.0
 11
120.557857
 21
66.0
 31
0.0
  0
LINE
  5
D3
330
1E
100
AcDbEntity
  8
CSLAYER1
  6
CENTER
 62
     4
100
AcDbLine
 10
88.57785699999997
 20
39.0
 30
0.0
 11
85.03349550000001
 21
39.0
 31
0.0
  0
LINE
  5
D4
330
1E
100
AcDbEntity
  8
CSLAYER1
  6
CENTER
 62
     4
100
AcDbLine
 10
77.5
 20
33.0114285
 30
0.0
 11
77.5
 21
45.48714299999999
 31
0.0
  0
LINE
  5
D5
330
1E
100
AcDbEntity
  8
CSLAYER1
  6
CENTER
 62
     4
100
AcDbLine
 10
77.5
 20
54.96285699999995
 30
0.0
 11
77.5
 21
76.65647199999995
 31
0.0
  0
LINE
  5
D6
330
1E
100
AcDbEntity
  8
CSLAYER1
  6
CENTER
 62
     4
100
AcDbLine
 10
61.09999999999995
 20
70.14285699999989
 30
0.0
 11
61.09999999999995
 21
61.3485715
 31
0.0
  0
LINE
  5
D7
330
1E
100
AcDbEntity
  8
CSLAYER1
  6
CONTINUOUS
 62
     4
100
AcDbLine
 10
59.27003
 20
63.62277299999995
 30
0.0
 11
62.92996999999999
 21
68.377227
 31
0.0
  0
LINE
  5
D8
330
1E
100
AcDbEntity
  8
CSLAYER1
  6
CONTINUOUS
 62
     4
100
AcDbLine
 10
59.27003
 20
63.62277299999995
 30
0.0
 11
59.84620149999995
 21
65.00770099999995
 31
0.0
  0
LINE
  5
D9
330
1E
100
AcDbEntity
  8
CSLAYER1
  6
CONTINUOUS
 62
     4
100
AcDbLine
 10
59.27003
 20
63.62277299999995
 30
0.0
 11
60.46147349999995
 21
64.53406999999995
 31
0.0
  0
LINE
  5
DA
330
1E
100
AcDbEntity
  8
CSLAYER1
  6
CONTINUOUS
 62
     4
100
AcDbLine
 10
62.92996999999999
 20
68.377227
 30
0.0
 11
62.3537985
 21
66.99229899999989
 31
0.0
  0
LINE
  5
DB
330
1E
100
AcDbEntity
  8
CSLAYER1
  6
CONTINUOUS
 62
     4
100
AcDbLine
 10
62.92996999999999
 20
68.377227
 30
0.0
 11
61.7385265
 21
67.46592999999996
 31
0.0
  0
LINE
  5
DC
330
1E
100
AcDbEntity
  8
CSLAYER1
  6
CENTER
 62
     4
100
AcDbLine
 10
66.78928549999994
 20
39.0
 30
0.0
 11
69.9665045
 21
39.0
 31
0.0
  0
LINE
  5
DD
330
1E
100
AcDbEntity
  8
CSLAYER1
  6
CONTINUOUS
 62
     3
100
AcDbLine
 10
64.07321349999989
 20
65.59999999999995
 30
0.0
 11
67.56068399999989
 21
65.59999999999995
 31
0.0
  0
ARC
  5
DE
330
1E
100
AcDbEntity
  8
CSLAYER1
  6
CONTINUOUS
 62
     3
100
AcDbCircle
 10
67.56068399999989
 20
67.0999999999999
 30
0.0
 40
1.5
100
AcDbArc
 50
270.0
 51
353.6846839999998
  0
LINE
  5
DF
330
1E
100
AcDbEntity
  8
CSLAYER1
  6
CONTINUOUS
 62
     3
100
AcDbLine
 10
64.07321349999989
 20
66.4
 30
0.0
 11
67.56068399999989
 21
66.4
 31
0.0
  0
ARC
  5
E0
330
1E
100
AcDbEntity
  8
CSLAYER1
  6
CONTINUOUS
 62
     3
100
AcDbCircle
 10
67.56068399999989
 20
64.90000000000001
 30
0.0
 40
1.5
100
AcDbArc
 50
47.16657199999999
 51
90.0
  0
LINE
  5
E3
330
1E
100
AcDbEntity
  8
CSLAYER1
  6
CONTINUOUS
 62
     3
100
AcDbLine
 10
44.18781950000001
 20
24.605528
 30
0.0
 11
31.33665099999999
 21
25.7343345
 31
0.0
  0
ARC
  5
E4
330
1E
100
AcDbEntity
  8
CSLAYER1
  6
CONTINUOUS
 62
     3
100
AcDbCircle
 10
29.14915099999999
 20
0.8302215
 30
0.0
 40
25.0
100
AcDbArc
 50
84.9802
 51
117.254561
  0
LINE
  5
E5
330
1E
100
AcDbEntity
  8
CSLAYER1
  6
CONTINUOUS
 62
     3
100
AcDbLine
 10
17.700534
 20
23.0547385
 30
0.0
 11
17.3385005
 21
18.93308649999999
 31
0.0
  0
ARC
  5
E6
330
1E
100
AcDbEntity
  8
CSLAYER1
  6
CONTINUOUS
 62
     3
100
AcDbCircle
 10
20.92469299999998
 20
18.6180865
 30
0.0
 40
3.0
100
AcDbArc
 50
2.642456
 51
150.5655179999999
  0
LINE
  5
E7
330
1E
100
AcDbEntity
  8
CSLAYER1
  6
CONTINUOUS
 62
     3
100
AcDbLine
 10
18.3119385
 20
20.09237049999998
 30
0.0
 11
17.3385005
 21
18.93308649999999
 31
0.0
  0
LINE
  5
E8
330
1E
100
AcDbEntity
  8
CSLAYER1
  6
CONTINUOUS
 62
     3
100
AcDbLine
 10
27.5226445
 20
18.44008299999999
 30
0.0
 11
30.4967265
 21
25.793876
 31
0.0
  0
ARC
  5
E9
330
1E
100
AcDbEntity
  8
CSLAYER1
  6
CONTINUOUS
 62
     3
100
AcDbCircle
 10
37.26179099999999
 20
17.18308649999999
 30
0.0
 40
8.5
100
AcDbArc
 50
109.7499229999999
 51
178.704485
  0
CIRCLE
  5
EA
330
1E
100
AcDbEntity
  8
CSLAYER1
  6
CONTINUOUS
 62
     3
100
AcDbCircle
 10
37.26179099999999
 20
17.18308649999999
 30
0.0
 40
2.049999999999998
  0
CIRCLE
  5
EB
330
1E
100
AcDbEntity
  8
CSLAYER1
  6
CONTINUOUS
 62
     3
100
AcDbCircle
 10
37.26179099999999
 20
17.18308649999999
 30
0.0
 40
5.5
  0
LINE
  5
EC
330
1E
100
AcDbEntity
  8
CSLAYER1
  6
CENTER
 62
     4
100
AcDbLine
 10
15.0829615
 20
17.18308649999999
 30
0.0
 11
45.43695349999999
 21
17.18308649999999
 31
0.0
  0
LINE
  5
ED
330
1E
100
AcDbEntity
  8
CSLAYER1
  6
CENTER
 62
     4
100
AcDbLine
 10
37.26179099999999
 20
6.145944
 30
0.0
 11
37.26179099999999
 21
27.8395585
 31
0.0
  0
LINE
  5
EE
330
1E
100
AcDbEntity
  8
CSLAYER1
  6
CONTINUOUS
 62
     3
100
AcDbLine
 10
23.921503
 20
18.75639599999999
 30
0.0
 11
27.39559749999999
 21
18.45124249999999
 31
0.0
  0
ARC
  5
EF
330
1E
100
AcDbEntity
  8
CSLAYER1
  6
CONTINUOUS
 62
     3
100
AcDbCircle
 10
27.26434749999999
 20
16.956996
 30
0.0
 40
1.5
100
AcDbArc
 50
8.669071999999998
 51
84.9802
  0
LINE
  5
F0
330
1E
100
AcDbEntity
  8
CSLAYER1
  6
CONTINUOUS
 62
     3
100
AcDbLine
 10
44.18781950000001
 20
9.7606455
 30
0.0
 11
31.33665099999999
 21
8.631838499999995
 31
0.0
  0
ARC
  5
F1
330
1E
100
AcDbEntity
  8
CSLAYER1
  6
CONTINUOUS
 62
     3
100
AcDbCircle
 10
29.14915099999999
 20
33.5359515
 30
0.0
 40
25.0
100
AcDbArc
 50
242.745439
 51
275.0197999999999
  0
LINE
  5
F2
330
1E
100
AcDbEntity
  8
CSLAYER1
  6
CONTINUOUS
 62
     3
100
AcDbLine
 10
17.700534
 20
11.3114345
 30
0.0
 11
17.3385005
 21
15.4330865
 31
0.0
  0
ARC
  5
F3
330
1E
100
AcDbEntity
  8
CSLAYER1
  6
CONTINUOUS
 62
     3
100
AcDbCircle
 10
20.92469299999998
 20
15.7480865
 30
0.0
 40
3.0
100
AcDbArc
 50
209.4344819999998
 51
357.357544
  0
LINE
  5
F4
330
1E
100
AcDbEntity
  8
CSLAYER1
  6
CONTINUOUS
 62
     3
100
AcDbLine
 10
18.3119385
 20
14.27380249999999
 30
0.0
 11
17.3385005
 21
15.4330865
 31
0.0
  0
LINE
  5
F5
330
1E
100
AcDbEntity
  8
CSLAYER1
  6
CONTINUOUS
 62
     3
100
AcDbLine
 10
23.921503
 20
15.609777
 30
0.0
 11
27.39559749999999
 21
15.91493049999999
 31
0.0
  0
ARC
  5
F6
330
1E
100
AcDbEntity
  8
CSLAYER1
  6
CONTINUOUS
 62
     3
100
AcDbCircle
 10
27.26434749999999
 20
17.40917749999999
 30
0.0
 40
1.5
100
AcDbArc
 50
275.0197999999999
 51
358.704485
  0
LINE
  5
F8
330
1E
100
AcDbEntity
  8
CSLAYER1
  6
CONTINUOUS
 62
     3
100
AcDbLine
 10
82.5
 20
58.0
 30
0.0
 11
111.8797199999999
 21
59.678841
 31
0.0
  0
ARC
  5
F9
330
1E
100
AcDbEntity
  8
CSLAYER1
  6
CONTINUOUS
 62
     3
100
AcDbCircle
 10
111.5374209999999
 20
65.66906899999989
 30
0.0
 40
6.0
100
AcDbArc
 50
273.270488
 51
353.5975439999998
  0
LINE
  5
FA
330
1E
100
AcDbEntity
  8
CSLAYER1
  6
CONTINUOUS
 62
     3
100
AcDbLine
 10
117.5
 20
65.0
 30
0.0
 11
86.5
 21
65.0
 31
0.0
  0
LINE
  5
FB
330
1E
100
AcDbEntity
  8
CSLAYER1
  6
CONTINUOUS
 62
     3
100
AcDbLine
 10
87.128341
 20
65.0
 30
0.0
 11
85.0324694999999
 21
58.14471249999995
 31
0.0
  0
ARC
  5
FC
330
1E
100
AcDbEntity
  8
CSLAYER1
  6
CONTINUOUS
 62
     3
100
AcDbCircle
 10
77.5
 20
66.0
 30
0.0
 40
8.5
100
AcDbArc
 50
289.749923
 51
0.0
  0
LINE
  5
FD
330
1E
100
AcDbEntity
  8
CSLAYER1
  6
CONTINUOUS
 62
     3
100
AcDbLine
 10
86.0
 20
66.5
 30
0.0
 11
86.0
 21
65.5
 31
0.0
  0
ARC
  5
FE
330
1E
100
AcDbEntity
  8
CSLAYER1
  6
CONTINUOUS
 62
     3
100
AcDbCircle
 10
86.5
 20
65.5
 30
0.0
 40
0.5
100
AcDbArc
 50
180.0
 51
270.0
  0
LINE
  5
FF
330
1E
100
AcDbEntity
  8
CSLAYER1
  6
CONTINUOUS
 62
     3
100
AcDbLine
 10
86.5
 20
67.0
 30
0.0
 11
117.5
 21
67.0
 31
0.0
  0
LINE
  5
100
330
1E
100
AcDbEntity
  8
CSLAYER1
  6
CONTINUOUS
 62
     3
100
AcDbLine
 10
117.5
 20
67.0
 30
0.0
 11
117.5
 21
67.08909099999999
 31
0.0
  0
ARC
  5
101
330
1E
100
AcDbEntity
  8
CSLAYER1
  6
CONTINUOUS
 62
     3
100
AcDbCircle
 10
111.5374209999999
 20
66.330931
 30
0.0
 40
6.0
100
AcDbArc
 50
6.402455999999999
 51
86.72951199999998
  0
LINE
  5
102
330
1E
100
AcDbEntity
  8
CSLAYER1
  6
CONTINUOUS
 62
     3
100
AcDbLine
 10
111.8797199999999
 20
72.32115899999995
 30
0.0
 11
82.5
 21
74.0
 31
0.0
  0
ARC
  5
103
330
1E
100
AcDbEntity
  8
CSLAYER1
  6
CONTINUOUS
 62
     3
100
AcDbCircle
 10
86.5
 20
66.5
 30
0.0
 40
0.5
100
AcDbArc
 50
90.0
 51
180.0
  0
LINE
  5
104
330
1E
100
AcDbEntity
  8
CSLAYER1
  6
CONTINUOUS
 62
     3
100
AcDbLine
 10
109.4999999999999
 20
67.0
 30
0.0
 11
109.4999999999999
 21
65.0
 31
0.0
  0
LINE
  5
105
330
1E
100
AcDbEntity
  8
CSLAYER1
  6
CONTINUOUS
 62
     3
100
AcDbLine
 10
113.5
 20
65.0
 30
0.0
 11
113.5
 21
67.0
 31
0.0
  0
LINE
  5
106
330
1E
100
AcDbEntity
  8
CSLAYER1
  6
CONTINUOUS
 62
     3
100
AcDbLine
 10
117.5
 20
65.0
 30
0.0
 11
117.5
 21
64.910909
 31
0.0
  0
LINE
  5
107
330
1E
100
AcDbEntity
  8
CSLAYER1
  6
CENTER
 62
     4
100
AcDbLine
 10
111.4999999999999
 20
69.6754285
 30
0.0
 11
111.4999999999999
 21
62.9794285
 31
0.0
  0
LINE
  5
108
330
1E
100
AcDbEntity
  8
CSLAYER1
  6
CENTER
 62
     4
100
AcDbLine
 10
90.5
 20
61.71028549999995
 30
0.0
 11
90.5
 21
70.25
 31
0.0
  0
ARC
  5
109
330
1E
100
AcDbEntity
  8
CSLAYER1
  6
CONTINUOUS
 62
     3
100
AcDbCircle
 10
114.0
 20
39.0
 30
0.0
 40
3.5
100
AcDbArc
 50
270.0
 51
90.0
  0
LINE
  5
10A
330
1E
100
AcDbEntity
  8
CSLAYER1
  6
CENTER
 62
     4
100
AcDbLine
 10
109.6635715
 20
39.0
 30
0.0
 11
121.2607144999999
 21
39.0
 31
0.0
  0
LINE
  5
10B
330
1E
100
AcDbEntity
  8
CSLAYER1
  6
DOT
 62
     3
100
AcDbLine
 10
2.5
 20
0.5
 30
0.0
 11
142.0
 21
0.5
 31
0.0
  0
LINE
  5
10C
330
1E
100
AcDbEntity
  8
CSLAYER1
  6
DOT
 62
     3
100
AcDbLine
 10
142.0
 20
0.5
 30
0.0
 11
142.0
 21
97.5
 31
0.0
  0
LINE
  5
10D
330
1E
100
AcDbEntity
  8
CSLAYER1
  6
DOT
 62
     3
100
AcDbLine
 10
142.0
 20
97.5
 30
0.0
 11
2.5
 21
97.5
 31
0.0
  0
LINE
  5
10E
330
1E
100
AcDbEntity
  8
CSLAYER1
  6
DOT
 62
     3
100
AcDbLine
 10
2.5
 20
97.5
 30
0.0
 11
2.5
 21
0.5
 31
0.0
  0
LINE
  5
10F
330
1E
100
AcDbEntity
  8
CSLAYER1
  6
DOT
 62
     3
100
AcDbLine
 10
142.0
 20
49.0
 30
0.0
 11
144.0
 21
49.0
 31
0.0
  0
LINE
  5
110
330
1E
100
AcDbEntity
  8
CSLAYER1
  6
DOT
 62
     3
100
AcDbLine
 10
72.25
 20
97.5
 30
0.0
 11
72.25
 21
99.50000000000001
 31
0.0
  0
LINE
  5
111
330
1E
100
AcDbEntity
  8
CSLAYER1
  6
DOT
 62
     3
100
AcDbLine
 10
17.5
 20
93.49999999999999
 30
0.0
 11
2.5
 21
93.49999999999999
 31
0.0
  0
LINE
  5
112
330
1E
100
AcDbEntity
  8
CSLAYER1
  6
DOT
 62
     3
100
AcDbLine
 10
17.5
 20
93.49999999999999
 30
0.0
 11
17.5
 21
97.5
 31
0.0
  0
LINE
  5
113
330
1E
100
AcDbEntity
  8
CSLAYER1
  6
DOT
 62
     3
100
AcDbLine
 10
2.5
 20
49.0
 30
0.0
 11
0.5
 21
49.0
 31
0.0
  0
TEXT
  5
148
330
1E
100
AcDbEntity
  8
CSLAYER1
 62
     4
100
AcDbText
 10
66.0
 20
83.9986189999999
 30
0.0
 40
1.5
  1
20
 41
1.199999999999999
 51
15.0
  7
FX_FONT
 72
     5
 11
69.0
 21
83.9986189999999
 31
0.0
100
AcDbText
  0
LINE
  5
149
330
1E
100
AcDbEntity
  8
CSLAYER1
 62
     4
100
AcDbLine
 10
57.5
 20
83.49861850000001
 30
0.0
 11
77.5
 21
83.49861850000001
 31
0.0
  0
LINE
  5
14A
330
1E
100
AcDbEntity
  8
CSLAYER1
 62
     4
100
AcDbLine
 10
57.5
 20
83.49861850000001
 30
0.0
 11
58.9488885
 21
83.88684750000001
 31
0.0
  0
LINE
  5
14B
330
1E
100
AcDbEntity
  8
CSLAYER1
 62
     4
100
AcDbLine
 10
57.5
 20
83.49861850000001
 30
0.0
 11
58.9488885
 21
83.11038999999999
 31
0.0
  0
LINE
  5
14C
330
1E
100
AcDbEntity
  8
CSLAYER1
 62
     4
100
AcDbLine
 10
77.5
 20
83.49861850000001
 30
0.0
 11
76.05111149999991
 21
83.88684750000001
 31
0.0
  0
LINE
  5
14D
330
1E
100
AcDbEntity
  8
CSLAYER1
 62
     4
100
AcDbLine
 10
77.5
 20
83.49861850000001
 30
0.0
 11
76.05111149999991
 21
83.11038999999999
 31
0.0
  0
LINE
  5
14E
330
1E
100
AcDbEntity
  8
CSLAYER1
 62
     4
100
AcDbLine
 10
57.5
 20
70.63752149999991
 30
0.0
 11
57.5
 21
83.9986185
 31
0.0
  0
LINE
  5
14F
330
1E
100
AcDbEntity
  8
CSLAYER1
 62
     4
100
AcDbLine
 10
77.5
 20
77.15647199999995
 30
0.0
 11
77.5
 21
83.9986185
 31
0.0
  0
TEXT
  5
150
330
1E
100
AcDbEntity
  8
CSLAYER1
 62
     4
100
AcDbText
 10
49.894287
 20
60.75
 30
0.0
 40
1.5
  1
14.5~16
 50
90.0
 41
1.05
 51
15.0
  7
FX_FONT
 72
     5
 11
49.894287
 21
71.25
 31
0.0
100
AcDbText
  0
LINE
  5
151
330
1E
100
AcDbEntity
  8
CSLAYER1
 62
     4
100
AcDbLine
 10
67.69393949999995
 20
58.0
 30
0.0
 11
49.89428549999999
 21
58.0
 31
0.0
  0
LINE
  5
152
330
1E
100
AcDbEntity
  8
CSLAYER1
 62
     4
100
AcDbLine
 10
68.15939399999995
 20
74.0
 30
0.0
 11
49.89428549999999
 21
74.0
 31
0.0
  0
LINE
  5
153
330
1E
100
AcDbEntity
  8
CSLAYER1
 62
     4
100
AcDbLine
 10
50.39428549999995
 20
58.0
 30
0.0
 11
50.39428549999995
 21
74.0
 31
0.0
  0
LINE
  5
154
330
1E
100
AcDbEntity
  8
CSLAYER1
 62
     4
100
AcDbLine
 10
50.39428549999995
 20
58.0
 30
0.0
 11
50.006057
 21
59.4488885
 31
0.0
  0
LINE
  5
155
330
1E
100
AcDbEntity
  8
CSLAYER1
 62
     4
100
AcDbLine
 10
50.39428549999995
 20
58.0
 30
0.0
 11
50.7825145
 21
59.4488885
 31
0.0
  0
LINE
  5
156
330
1E
100
AcDbEntity
  8
CSLAYER1
 62
     4
100
AcDbLine
 10
50.39428549999995
 20
74.0
 30
0.0
 11
50.006057
 21
72.55111150000001
 31
0.0
  0
LINE
  5
157
330
1E
100
AcDbEntity
  8
CSLAYER1
 62
     4
100
AcDbLine
 10
50.39428549999995
 20
74.0
 30
0.0
 11
50.7825145
 21
72.55111150000001
 31
0.0
  0
TEXT
  5
158
330
1E
100
AcDbEntity
  8
CSLAYER1
 62
     4
100
AcDbText
 10
53.45090849999995
 20
63.75
 30
0.0
 40
1.5
  1
(8)
 50
90.0
 41
1.285714285714273
 51
15.0
  7
FX_FONT
 72
     5
 11
53.45090849999995
 21
68.24999999999995
 31
0.0
100
AcDbText
  0
LINE
  5
159
330
1E
100
AcDbEntity
  8
CSLAYER1
 62
     4
100
AcDbLine
 10
57.0
 20
61.8624785
 30
0.0
 11
53.45090899999999
 21
61.8624785
 31
0.0
  0
LINE
  5
15A
330
1E
100
AcDbEntity
  8
CSLAYER1
 62
     4
100
AcDbLine
 10
57.0
 20
70.13752149999994
 30
0.0
 11
53.45090899999999
 21
70.13752149999994
 31
0.0
  0
LINE
  5
15B
330
1E
100
AcDbEntity
  8
CSLAYER1
 62
     4
100
AcDbLine
 10
53.95090899999999
 20
61.8624785
 30
0.0
 11
53.95090899999999
 21
70.13752149999994
 31
0.0
  0
LINE
  5
15C
330
1E
100
AcDbEntity
  8
CSLAYER1
 62
     4
100
AcDbLine
 10
53.95090899999999
 20
61.8624785
 30
0.0
 11
53.5626805
 21
63.3113675
 31
0.0
  0
LINE
  5
15D
330
1E
100
AcDbEntity
  8
CSLAYER1
 62
     4
100
AcDbLine
 10
53.95090899999999
 20
61.8624785
 30
0.0
 11
54.3391375
 21
63.3113675
 31
0.0
  0
LINE
  5
15E
330
1E
100
AcDbEntity
  8
CSLAYER1
 62
     4
100
AcDbLine
 10
53.95090899999999
 20
70.13752149999994
 30
0.0
 11
53.5626805
 21
68.6886325
 31
0.0
  0
LINE
  5
15F
330
1E
100
AcDbEntity
  8
CSLAYER1
 62
     4
100
AcDbLine
 10
53.95090899999999
 20
70.13752149999994
 30
0.0
 11
54.3391375
 21
68.6886325
 31
0.0
  0
TEXT
  5
160
330
1E
100
AcDbEntity
  8
CSLAYER1
 62
     4
100
AcDbText
 10
65.29574599999995
 20
60.9570055
 30
0.0
 40
1.5
  1
R25
 50
71.32043636611486
 41
1.124999977700105
 51
15.0
  7
FX_FONT
 72
     5
 11
66.73698399999995
 21
65.21996599999996
 31
0.0
100
AcDbText
  0
LINE
  5
161
330
1E
100
AcDbEntity
  8
CSLAYER1
 62
     4
100
AcDbLine
 10
62.84247199999989
 20
59.316886
 30
0.0
 11
66.07437149999995
 21
68.87634649999995
 31
0.0
  0
LINE
  5
162
330
1E
100
AcDbEntity
  8
CSLAYER1
 62
     4
100
AcDbLine
 10
62.84247199999989
 20
59.316886
 30
0.0
 11
62.9387365
 21
60.81379399999995
 31
0.0
  0
LINE
  5
163
330
1E
100
AcDbEntity
  8
CSLAYER1
 62
     4
100
AcDbLine
 10
62.84247199999989
 20
59.316886
 30
0.0
 11
63.6742935
 21
60.56511399999995
 31
0.0
  0
LINE
  5
164
330
1E
100
AcDbEntity
  8
CSLAYER1
  6
CONTINUOUS
 62
     4
100
AcDbLine
 10
76.96942099999995
 20
64.01985199999995
 30
0.0
 11
73.648039
 21
51.6242855
 31
0.0
  0
LINE
  5
165
330
1E
100
AcDbEntity
  8
CSLAYER1
  6
CONTINUOUS
 62
     4
100
AcDbLine
 10
76.96942099999995
 20
64.01985199999995
 30
0.0
 11
76.96942099999995
 21
62.51985199999995
 31
0.0
  0
LINE
  5
166
330
1E
100
AcDbEntity
  8
CSLAYER1
  6
CONTINUOUS
 62
     4
100
AcDbLine
 10
76.96942099999995
 20
64.01985199999995
 30
0.0
 11
76.219421
 21
62.72081400000001
 31
0.0
  0
LINE
  5
167
330
1E
100
AcDbEntity
  8
CSLAYER1
  6
CONTINUOUS
 62
     4
100
AcDbLine
 10
73.648039
 20
51.6242855
 30
0.0
 11
63.648039
 21
51.6242855
 31
0.0
  0
TEXT
  5
168
330
1E
100
AcDbEntity
  8
CSLAYER1
 62
     4
100
AcDbText
 10
64.09999849999995
 20
52.12428649999996
 30
0.0
 40
1.5
  1
%%c4.1キリ
 41
1.011235955056179
 51
15.0
  7
FX_FONT
 72
     5
 11
73.09999849999996
 21
52.12428649999996
 31
0.0
100
AcDbText
  0
TEXT
  5
169
330
1E
100
AcDbEntity
  8
CSLAYER1
 62
     4
100
AcDbText
 10
51.15385799999994
 20
38.4298555
 30
0.0
 40
1.5
  1
7  
 50
90.0
 41
1.363636363636363
 51
15.0
  7
FX_FONT
 72
     5
 11
51.15385799999994
 21
42.9298555
 31
0.0
100
AcDbText
  0
TEXT
  5
16A
330
1E
100
AcDbEntity
  8
CSLAYER1
 62
     4
100
AcDbText
 10
50.403858
 20
42.9298555
 30
0.0
 40
0.75
  1
  0
 50
90.0
 41
1.607142857142857
 51
15.0
  7
FX_FONT
 72
     5
 11
50.403858
 21
45.1798555
 31
0.0
100
AcDbText
  0
TEXT
  5
16B
330
1E
100
AcDbEntity
  8
CSLAYER1
 62
     4
100
AcDbText
 10
51.15385799999994
 20
42.9298555
 30
0.0
 40
0.75
  1
-0.15
 50
90.0
 41
1.071428571428571
 51
15.0
  7
FX_FONT
 72
     5
 11
51.15385799999994
 21
46.6798555
 31
0.0
100
AcDbText
  0
LINE
  5
16C
330
1E
100
AcDbEntity
  8
CSLAYER1
 62
     4
100
AcDbLine
 10
57.0
 20
35.5
 30
0.0
 11
51.153857
 21
35.5
 31
0.0
  0
LINE
  5
16D
330
1E
100
AcDbEntity
  8
CSLAYER1
 62
     4
100
AcDbLine
 10
57.0
 20
42.5
 30
0.0
 11
51.153857
 21
42.5
 31
0.0
  0
LINE
  5
16E
330
1E
100
AcDbEntity
  8
CSLAYER1
 62
     4
100
AcDbLine
 10
51.653857
 20
35.5
 30
0.0
 11
51.653857
 21
42.5
 31
0.0
  0
LINE
  5
16F
330
1E
100
AcDbEntity
  8
CSLAYER1
 62
     4
100
AcDbLine
 10
51.653857
 20
35.5
 30
0.0
 11
51.2656285
 21
36.9488885
 31
0.0
  0
LINE
  5
170
330
1E
100
AcDbEntity
  8
CSLAYER1
 62
     4
100
AcDbLine
 10
51.653857
 20
35.5
 30
0.0
 11
52.0420855
 21
36.9488885
 31
0.0
  0
LINE
  5
171
330
1E
100
AcDbEntity
  8
CSLAYER1
 62
     4
100
AcDbLine
 10
51.653857
 20
42.5
 30
0.0
 11
51.2656285
 21
41.05111149999999
 31
0.0
  0
LINE
  5
172
330
1E
100
AcDbEntity
  8
CSLAYER1
 62
     4
100
AcDbLine
 10
51.653857
 20
42.5
 30
0.0
 11
52.0420855
 21
41.05111149999999
 31
0.0
  0
TEXT
  5
173
330
1E
100
AcDbEntity
  8
CSLAYER1
 62
     4
100
AcDbText
 10
9.581300500000001
 20
14.611603
 30
0.0
 40
1.5
  1
3.5
 50
90.0
 41
1.124999999999998
 51
15.0
  7
FX_FONT
 72
     5
 11
9.581300500000001
 21
19.11160299999999
 31
0.0
100
AcDbText
  0
LINE
  5
174
330
1E
100
AcDbEntity
  8
CSLAYER1
 62
     4
100
AcDbLine
 10
10.27691249999999
 20
15.4330865
 30
0.0
 11
10.27691249999999
 21
18.93308649999999
 31
0.0
  0
LINE
  5
175
330
1E
100
AcDbEntity
  8
CSLAYER1
 62
     4
100
AcDbLine
 10
16.8385005
 20
15.4330865
 30
0.0
 11
9.776912499999991
 21
15.4330865
 31
0.0
  0
LINE
  5
176
330
1E
100
AcDbEntity
  8
CSLAYER1
 62
     4
100
AcDbLine
 10
16.8385005
 20
18.93308649999999
 30
0.0
 11
9.776912499999991
 21
18.93308649999999
 31
0.0
  0
LINE
  5
177
330
1E
100
AcDbEntity
  8
CSLAYER1
 62
     4
100
AcDbLine
 10
10.27691249999999
 20
12.4330865
 30
0.0
 11
10.27691249999999
 21
15.4330865
 31
0.0
  0
LINE
  5
178
330
1E
100
AcDbEntity
  8
CSLAYER1
 62
     4
100
AcDbLine
 10
10.27691249999999
 20
15.4330865
 30
0.0
 11
9.88868399999999
 21
13.984198
 31
0.0
  0
LINE
  5
179
330
1E
100
AcDbEntity
  8
CSLAYER1
 62
     4
100
AcDbLine
 10
10.27691249999999
 20
15.4330865
 30
0.0
 11
10.66514149999999
 21
13.984198
 31
0.0
  0
LINE
  5
17A
330
1E
100
AcDbEntity
  8
CSLAYER1
 62
     4
100
AcDbLine
 10
10.27691249999999
 20
18.93308649999999
 30
0.0
 11
10.27691249999999
 21
21.9330865
 31
0.0
  0
LINE
  5
17B
330
1E
100
AcDbEntity
  8
CSLAYER1
 62
     4
100
AcDbLine
 10
10.27691249999999
 20
18.93308649999999
 30
0.0
 11
9.88868399999999
 21
20.3819755
 31
0.0
  0
LINE
  5
17C
330
1E
100
AcDbEntity
  8
CSLAYER1
 62
     4
100
AcDbLine
 10
10.27691249999999
 20
18.93308649999999
 30
0.0
 11
10.66514149999999
 21
20.3819755
 31
0.0
  0
ENDSEC
  0
SECTION
  2
OBJECTS
  0
DICTIONARY
  5
C
330
0
100
AcDbDictionary
  3
ACAD_GROUP
350
D
  3
ACAD_LAYOUT
350
19
  3
ACAD_MLINESTYLE
350
16
  3
ACAD_PLOTSETTINGS
350
18
1001
ACAD
1000
TREAT_AS_HARD
1070
     0
1000
TREAT_AS_HARD
1070
     0
1000
TREAT_AS_HARD
1070
     0
  0
DICTIONARY
  5
11D
330
1E
100
AcDbDictionary
  3
ACAD_LAYOUTSELFREF
350
181
1001
ACAD
1000
TREAT_AS_HARD
1070
     0
1000
TREAT_AS_HARD
1070
     0
  0
DICTIONARY
  5
11B
330
1A
100
AcDbDictionary
  3
ACAD_LAYOUTSELFREF
350
180
1001
ACAD
1000
TREAT_AS_HARD
1070
     0
1000
TREAT_AS_HARD
1070
     0
  0
DICTIONARY
  5
D
102
{ACAD_REACTORS
330
C
102
}
330
C
100
AcDbDictionary
1001
ACAD
1000
TREAT_AS_HARD
1070
     0
1000
TREAT_AS_HARD
1070
     0
1000
TREAT_AS_HARD
1070
     0
  0
DICTIONARY
  5
19
102
{ACAD_REACTORS
330
C
102
}
330
C
100
AcDbDictionary
1001
ACAD
1000
TREAT_AS_HARD
1070
     0
1000
TREAT_AS_HARD
1070
     0
1000
TREAT_AS_HARD
1070
     0
  0
DICTIONARY
  5
16
102
{ACAD_REACTORS
330
C
102
}
330
C
100
AcDbDictionary
  3
STANDARD
350
17
1001
ACAD
1000
TREAT_AS_HARD
1070
     0
1000
TREAT_AS_HARD
1070
     0
1000
TREAT_AS_HARD
1070
     0
  0
DICTIONARY
  5
18
102
{ACAD_REACTORS
330
C
102
}
330
C
100
AcDbDictionary
1001
ACAD
1000
TREAT_AS_HARD
1070
     0
1000
TREAT_AS_HARD
1070
     0
1000
TREAT_AS_HARD
1070
     0
  0
XRECORD
  5
181
102
{ACAD_REACTORS
330
11D
102
}
330
11D
100
AcDbXrecord
340
1E
  0
XRECORD
  5
180
102
{ACAD_REACTORS
330
11B
102
}
330
11B
100
AcDbXrecord
340
1A
  0
MLINESTYLE
  5
17
102
{ACAD_REACTORS
330
16
102
}
330
16
100
AcDbMlineStyle
  2
STANDARD
 70
     0
  3

 62
   256
 51
90.0
 52
90.0
 71
     2
 49
0.5
 62
   256
  6
BYLAYER
 49
-0.5
 62
   256
  6
BYLAYER
  0
ENDSEC
  0
EOF
