999
Outputted By AR_CAD Ver.1.3.2
  0
SECTION
  2
HEADER
  9
$ACADVER
  1
AC1009
  9
$DWGCODEPAGE
  3
DOS932
  9
$EXTMIN
 10
0
 20
0
  9
$EXTMAX
 10
297
 20
210
  9
$INSBASE
 10
0.0
 20
0.0
 30
0.0
  9
$HANDLING
 70
     1
  9
$LTSCALE
 40
1
  0
ENDSEC
  0
SECTION
  2
TABLES
  0
TABLE
  2
LTYPE
 70
     7
  0
LTYPE
  2
BYBLOCK
 70
    64
 3

 72
    65
 73
    0
 40
    0
  0
LTYPE
  2
BYLAYER
 70
    64
 3

 72
    65
 73
    0
 40
    0
  0
LTYPE
  2
CONTINUOUS
 70
    64
 3
CONTINUOUS
 72
    65
 73
    0
 40
    0
  0
LTYPE
  2
DASHED
 70
    64
 3

 72
    65
 73
    2
 40
    0.75
 49
    0.5
 49
    -0.25
  0
LTYPE
  2
DOT
 70
    64
 3

 72
    65
 73
    2
 40
    0.25
 49
    0
 49
    -0.25
  0
LTYPE
  2
DASHDOT
 70
    64
 3

 72
    65
 73
    4
 40
    1
 49
    0.5
 49
    -0.25
 49
    0
 49
    -0.25
  0
LTYPE
  2
DIVIDE
 70
    64
 3

 72
    65
 73
    6
 40
    1.25
 49
    0.5
 49
    -0.25
 49
    0
 49
    -0.25
 49
    0
 49
    -0.25
  0
LTYPE
  2
HIDDEN
 70
    64
 3

 72
    65
 73
    2
 40
    0.375
 49
    0.25
 49
    -0.125
  0
ENDTAB
  0
TABLE
  2
LAYER
 70
   257
  0
LAYER
  2
1
 70
    0
 62
7
  6
CONTINUOUS
  0
LAYER
  2
2
 70
    0
 62
2
  6
CONTINUOUS
  0
LAYER
  2
3
 70
    0
 62
6
  6
CONTINUOUS
  0
LAYER
  2
4
 70
    0
 62
5
  6
CONTINUOUS
  0
LAYER
  2
5
 70
    0
 62
4
  6
CONTINUOUS
  0
LAYER
  2
6
 70
    0
 62
7
  6
CONTINUOUS
  0
LAYER
  2
7
 70
    0
 62
7
  6
CONTINUOUS
  0
LAYER
  2
8
 70
    0
 62
2
  6
CONTINUOUS
  0
LAYER
  2
9
 70
    0
 62
6
  6
CONTINUOUS
  0
LAYER
  2
10
 70
    0
 62
5
  6
CONTINUOUS
  0
LAYER
  2
11
 70
    0
 62
4
  6
CONTINUOUS
  0
LAYER
  2
12
 70
    0
 62
7
  6
CONTINUOUS
  0
LAYER
  2
13
 70
    0
 62
2
  6
CONTINUOUS
  0
LAYER
  2
14
 70
    0
 62
6
  6
CONTINUOUS
  0
LAYER
  2
15
 70
    0
 62
5
  6
CONTINUOUS
  0
LAYER
  2
16
 70
    0
 62
4
  6
CONTINUOUS
  0
LAYER
  2
画層16
 70
    0
 62
7
  6
CONTINUOUS
  0
LAYER
  2
画層17
 70
    0
 62
70
  6
CONTINUOUS
  0
LAYER
  2
画層18
 70
    0
 62
211
  6
CONTINUOUS
  0
LAYER
  2
画層19
 70
    0
 62
137
  6
CONTINUOUS
  0
LAYER
  2
画層20
 70
    0
 62
4
  6
CONTINUOUS
  0
LAYER
  2
画層21
 70
    0
 62
131
  6
CONTINUOUS
  0
LAYER
  2
画層22
 70
    0
 62
4
  6
CONTINUOUS
  0
LAYER
  2
画層23
 70
    0
 62
4
  6
CONTINUOUS
  0
LAYER
  2
画層24
 70
    0
 62
7
  6
CONTINUOUS
  0
LAYER
  2
画層25
 70
    0
 62
7
  6
CONTINUOUS
  0
LAYER
  2
画層26
 70
    0
 62
7
  6
CONTINUOUS
  0
LAYER
  2
画層27
 70
    0
 62
7
  6
CONTINUOUS
  0
LAYER
  2
画層28
 70
    0
 62
7
  6
CONTINUOUS
  0
LAYER
  2
画層29
 70
    0
 62
7
  6
CONTINUOUS
  0
LAYER
  2
画層30
 70
    0
 62
7
  6
CONTINUOUS
  0
LAYER
  2
画層31
 70
    0
 62
7
  6
CONTINUOUS
  0
LAYER
  2
画層32
 70
    0
 62
7
  6
CONTINUOUS
  0
LAYER
  2
画層33
 70
    0
 62
7
  6
CONTINUOUS
  0
LAYER
  2
画層34
 70
    0
 62
7
  6
CONTINUOUS
  0
LAYER
  2
画層35
 70
    0
 62
7
  6
CONTINUOUS
  0
LAYER
  2
画層36
 70
    0
 62
7
  6
CONTINUOUS
  0
LAYER
  2
画層37
 70
    0
 62
7
  6
CONTINUOUS
  0
LAYER
  2
画層38
 70
    0
 62
7
  6
CONTINUOUS
  0
LAYER
  2
画層39
 70
    0
 62
7
  6
CONTINUOUS
  0
LAYER
  2
画層40
 70
    0
 62
7
  6
CONTINUOUS
  0
LAYER
  2
画層41
 70
    0
 62
7
  6
CONTINUOUS
  0
LAYER
  2
画層42
 70
    0
 62
7
  6
CONTINUOUS
  0
LAYER
  2
画層43
 70
    0
 62
7
  6
CONTINUOUS
  0
LAYER
  2
画層44
 70
    0
 62
7
  6
CONTINUOUS
  0
LAYER
  2
画層45
 70
    0
 62
7
  6
CONTINUOUS
  0
LAYER
  2
画層46
 70
    0
 62
7
  6
CONTINUOUS
  0
LAYER
  2
画層47
 70
    0
 62
7
  6
CONTINUOUS
  0
LAYER
  2
画層48
 70
    0
 62
7
  6
CONTINUOUS
  0
LAYER
  2
画層49
 70
    0
 62
7
  6
CONTINUOUS
  0
LAYER
  2
画層50
 70
    0
 62
7
  6
CONTINUOUS
  0
LAYER
  2
画層51
 70
    0
 62
7
  6
CONTINUOUS
  0
LAYER
  2
画層52
 70
    0
 62
7
  6
CONTINUOUS
  0
LAYER
  2
画層53
 70
    0
 62
7
  6
CONTINUOUS
  0
LAYER
  2
画層54
 70
    0
 62
7
  6
CONTINUOUS
  0
LAYER
  2
画層55
 70
    0
 62
7
  6
CONTINUOUS
  0
LAYER
  2
画層56
 70
    0
 62
7
  6
CONTINUOUS
  0
LAYER
  2
画層57
 70
    0
 62
7
  6
CONTINUOUS
  0
LAYER
  2
画層58
 70
    0
 62
7
  6
CONTINUOUS
  0
LAYER
  2
画層59
 70
    0
 62
7
  6
CONTINUOUS
  0
LAYER
  2
画層60
 70
    0
 62
7
  6
CONTINUOUS
  0
LAYER
  2
画層61
 70
    0
 62
7
  6
CONTINUOUS
  0
LAYER
  2
画層62
 70
    0
 62
7
  6
CONTINUOUS
  0
LAYER
  2
画層63
 70
    0
 62
7
  6
CONTINUOUS
  0
LAYER
  2
画層64
 70
    0
 62
7
  6
CONTINUOUS
  0
LAYER
  2
画層65
 70
    0
 62
7
  6
CONTINUOUS
  0
LAYER
  2
画層66
 70
    0
 62
7
  6
CONTINUOUS
  0
LAYER
  2
画層67
 70
    0
 62
7
  6
CONTINUOUS
  0
LAYER
  2
画層68
 70
    0
 62
7
  6
CONTINUOUS
  0
LAYER
  2
画層69
 70
    0
 62
7
  6
CONTINUOUS
  0
LAYER
  2
画層70
 70
    0
 62
7
  6
CONTINUOUS
  0
LAYER
  2
画層71
 70
    0
 62
7
  6
CONTINUOUS
  0
LAYER
  2
画層72
 70
    0
 62
7
  6
CONTINUOUS
  0
LAYER
  2
画層73
 70
    0
 62
7
  6
CONTINUOUS
  0
LAYER
  2
画層74
 70
    0
 62
7
  6
CONTINUOUS
  0
LAYER
  2
画層75
 70
    0
 62
7
  6
CONTINUOUS
  0
LAYER
  2
画層76
 70
    0
 62
7
  6
CONTINUOUS
  0
LAYER
  2
画層77
 70
    0
 62
7
  6
CONTINUOUS
  0
LAYER
  2
画層78
 70
    0
 62
7
  6
CONTINUOUS
  0
LAYER
  2
画層79
 70
    0
 62
7
  6
CONTINUOUS
  0
LAYER
  2
画層80
 70
    0
 62
7
  6
CONTINUOUS
  0
LAYER
  2
画層81
 70
    0
 62
7
  6
CONTINUOUS
  0
LAYER
  2
画層82
 70
    0
 62
7
  6
CONTINUOUS
  0
LAYER
  2
画層83
 70
    0
 62
7
  6
CONTINUOUS
  0
LAYER
  2
画層84
 70
    0
 62
7
  6
CONTINUOUS
  0
LAYER
  2
画層85
 70
    0
 62
7
  6
CONTINUOUS
  0
LAYER
  2
画層86
 70
    0
 62
7
  6
CONTINUOUS
  0
LAYER
  2
画層87
 70
    0
 62
7
  6
CONTINUOUS
  0
LAYER
  2
画層88
 70
    0
 62
7
  6
CONTINUOUS
  0
LAYER
  2
画層89
 70
    0
 62
7
  6
CONTINUOUS
  0
LAYER
  2
画層90
 70
    0
 62
7
  6
CONTINUOUS
  0
LAYER
  2
画層91
 70
    0
 62
7
  6
CONTINUOUS
  0
LAYER
  2
画層92
 70
    0
 62
7
  6
CONTINUOUS
  0
LAYER
  2
画層93
 70
    0
 62
7
  6
CONTINUOUS
  0
LAYER
  2
画層94
 70
    0
 62
7
  6
CONTINUOUS
  0
LAYER
  2
画層95
 70
    0
 62
7
  6
CONTINUOUS
  0
LAYER
  2
画層96
 70
    0
 62
7
  6
CONTINUOUS
  0
LAYER
  2
画層97
 70
    0
 62
7
  6
CONTINUOUS
  0
LAYER
  2
画層98
 70
    0
 62
7
  6
CONTINUOUS
  0
LAYER
  2
画層99
 70
    0
 62
7
  6
CONTINUOUS
  0
LAYER
  2
画層100
 70
    0
 62
7
  6
CONTINUOUS
  0
LAYER
  2
画層101
 70
    0
 62
7
  6
CONTINUOUS
  0
LAYER
  2
画層102
 70
    0
 62
7
  6
CONTINUOUS
  0
LAYER
  2
画層103
 70
    0
 62
7
  6
CONTINUOUS
  0
LAYER
  2
画層104
 70
    0
 62
7
  6
CONTINUOUS
  0
LAYER
  2
画層105
 70
    0
 62
7
  6
CONTINUOUS
  0
LAYER
  2
画層106
 70
    0
 62
7
  6
CONTINUOUS
  0
LAYER
  2
画層107
 70
    0
 62
7
  6
CONTINUOUS
  0
LAYER
  2
画層108
 70
    0
 62
7
  6
CONTINUOUS
  0
LAYER
  2
画層109
 70
    0
 62
7
  6
CONTINUOUS
  0
LAYER
  2
画層110
 70
    0
 62
7
  6
CONTINUOUS
  0
LAYER
  2
画層111
 70
    0
 62
7
  6
CONTINUOUS
  0
LAYER
  2
画層112
 70
    0
 62
7
  6
CONTINUOUS
  0
LAYER
  2
画層113
 70
    0
 62
7
  6
CONTINUOUS
  0
LAYER
  2
画層114
 70
    0
 62
7
  6
CONTINUOUS
  0
LAYER
  2
画層115
 70
    0
 62
7
  6
CONTINUOUS
  0
LAYER
  2
画層116
 70
    0
 62
7
  6
CONTINUOUS
  0
LAYER
  2
画層117
 70
    0
 62
7
  6
CONTINUOUS
  0
LAYER
  2
画層118
 70
    0
 62
7
  6
CONTINUOUS
  0
LAYER
  2
画層119
 70
    0
 62
7
  6
CONTINUOUS
  0
LAYER
  2
画層120
 70
    0
 62
7
  6
CONTINUOUS
  0
LAYER
  2
画層121
 70
    0
 62
7
  6
CONTINUOUS
  0
LAYER
  2
画層122
 70
    0
 62
7
  6
CONTINUOUS
  0
LAYER
  2
画層123
 70
    0
 62
7
  6
CONTINUOUS
  0
LAYER
  2
画層124
 70
    0
 62
7
  6
CONTINUOUS
  0
LAYER
  2
画層125
 70
    0
 62
7
  6
CONTINUOUS
  0
LAYER
  2
画層126
 70
    0
 62
7
  6
CONTINUOUS
  0
LAYER
  2
画層127
 70
    0
 62
7
  6
CONTINUOUS
  0
LAYER
  2
画層128
 70
    0
 62
7
  6
CONTINUOUS
  0
LAYER
  2
画層129
 70
    0
 62
7
  6
CONTINUOUS
  0
LAYER
  2
画層130
 70
    0
 62
7
  6
CONTINUOUS
  0
LAYER
  2
画層131
 70
    0
 62
7
  6
CONTINUOUS
  0
LAYER
  2
画層132
 70
    0
 62
7
  6
CONTINUOUS
  0
LAYER
  2
画層133
 70
    0
 62
7
  6
CONTINUOUS
  0
LAYER
  2
画層134
 70
    0
 62
7
  6
CONTINUOUS
  0
LAYER
  2
画層135
 70
    0
 62
7
  6
CONTINUOUS
  0
LAYER
  2
画層136
 70
    0
 62
7
  6
CONTINUOUS
  0
LAYER
  2
画層137
 70
    0
 62
7
  6
CONTINUOUS
  0
LAYER
  2
画層138
 70
    0
 62
7
  6
CONTINUOUS
  0
LAYER
  2
画層139
 70
    0
 62
7
  6
CONTINUOUS
  0
LAYER
  2
画層140
 70
    0
 62
7
  6
CONTINUOUS
  0
LAYER
  2
画層141
 70
    0
 62
7
  6
CONTINUOUS
  0
LAYER
  2
画層142
 70
    0
 62
7
  6
CONTINUOUS
  0
LAYER
  2
画層143
 70
    0
 62
7
  6
CONTINUOUS
  0
LAYER
  2
画層144
 70
    0
 62
7
  6
CONTINUOUS
  0
LAYER
  2
画層145
 70
    0
 62
7
  6
CONTINUOUS
  0
LAYER
  2
画層146
 70
    0
 62
7
  6
CONTINUOUS
  0
LAYER
  2
画層147
 70
    0
 62
7
  6
CONTINUOUS
  0
LAYER
  2
画層148
 70
    0
 62
7
  6
CONTINUOUS
  0
LAYER
  2
画層149
 70
    0
 62
7
  6
CONTINUOUS
  0
LAYER
  2
画層150
 70
    0
 62
7
  6
CONTINUOUS
  0
LAYER
  2
画層151
 70
    0
 62
7
  6
CONTINUOUS
  0
LAYER
  2
画層152
 70
    0
 62
7
  6
CONTINUOUS
  0
LAYER
  2
画層153
 70
    0
 62
7
  6
CONTINUOUS
  0
LAYER
  2
画層154
 70
    0
 62
7
  6
CONTINUOUS
  0
LAYER
  2
画層155
 70
    0
 62
7
  6
CONTINUOUS
  0
LAYER
  2
画層156
 70
    0
 62
7
  6
CONTINUOUS
  0
LAYER
  2
画層157
 70
    0
 62
7
  6
CONTINUOUS
  0
LAYER
  2
画層158
 70
    0
 62
7
  6
CONTINUOUS
  0
LAYER
  2
画層159
 70
    0
 62
7
  6
CONTINUOUS
  0
LAYER
  2
画層160
 70
    0
 62
7
  6
CONTINUOUS
  0
LAYER
  2
画層161
 70
    0
 62
7
  6
CONTINUOUS
  0
LAYER
  2
画層162
 70
    0
 62
7
  6
CONTINUOUS
  0
LAYER
  2
画層163
 70
    0
 62
7
  6
CONTINUOUS
  0
LAYER
  2
画層164
 70
    0
 62
7
  6
CONTINUOUS
  0
LAYER
  2
画層165
 70
    0
 62
7
  6
CONTINUOUS
  0
LAYER
  2
画層166
 70
    0
 62
7
  6
CONTINUOUS
  0
LAYER
  2
画層167
 70
    0
 62
7
  6
CONTINUOUS
  0
LAYER
  2
画層168
 70
    0
 62
7
  6
CONTINUOUS
  0
LAYER
  2
画層169
 70
    0
 62
7
  6
CONTINUOUS
  0
LAYER
  2
画層170
 70
    0
 62
7
  6
CONTINUOUS
  0
LAYER
  2
画層171
 70
    0
 62
7
  6
CONTINUOUS
  0
LAYER
  2
画層172
 70
    0
 62
7
  6
CONTINUOUS
  0
LAYER
  2
画層173
 70
    0
 62
7
  6
CONTINUOUS
  0
LAYER
  2
画層174
 70
    0
 62
7
  6
CONTINUOUS
  0
LAYER
  2
画層175
 70
    0
 62
7
  6
CONTINUOUS
  0
LAYER
  2
画層176
 70
    0
 62
7
  6
CONTINUOUS
  0
LAYER
  2
画層177
 70
    0
 62
7
  6
CONTINUOUS
  0
LAYER
  2
画層178
 70
    0
 62
7
  6
CONTINUOUS
  0
LAYER
  2
画層179
 70
    0
 62
7
  6
CONTINUOUS
  0
LAYER
  2
画層180
 70
    0
 62
7
  6
CONTINUOUS
  0
LAYER
  2
画層181
 70
    0
 62
7
  6
CONTINUOUS
  0
LAYER
  2
画層182
 70
    0
 62
7
  6
CONTINUOUS
  0
LAYER
  2
画層183
 70
    0
 62
7
  6
CONTINUOUS
  0
LAYER
  2
画層184
 70
    0
 62
7
  6
CONTINUOUS
  0
LAYER
  2
画層185
 70
    0
 62
7
  6
CONTINUOUS
  0
LAYER
  2
画層186
 70
    0
 62
7
  6
CONTINUOUS
  0
LAYER
  2
画層187
 70
    0
 62
7
  6
CONTINUOUS
  0
LAYER
  2
画層188
 70
    0
 62
7
  6
CONTINUOUS
  0
LAYER
  2
画層189
 70
    0
 62
7
  6
CONTINUOUS
  0
LAYER
  2
画層190
 70
    0
 62
7
  6
CONTINUOUS
  0
LAYER
  2
画層191
 70
    0
 62
7
  6
CONTINUOUS
  0
LAYER
  2
画層192
 70
    0
 62
7
  6
CONTINUOUS
  0
LAYER
  2
画層193
 70
    0
 62
7
  6
CONTINUOUS
  0
LAYER
  2
画層194
 70
    0
 62
7
  6
CONTINUOUS
  0
LAYER
  2
画層195
 70
    0
 62
7
  6
CONTINUOUS
  0
LAYER
  2
画層196
 70
    0
 62
7
  6
CONTINUOUS
  0
LAYER
  2
画層197
 70
    0
 62
7
  6
CONTINUOUS
  0
LAYER
  2
画層198
 70
    0
 62
7
  6
CONTINUOUS
  0
LAYER
  2
画層199
 70
    0
 62
7
  6
CONTINUOUS
  0
LAYER
  2
画層200
 70
    0
 62
7
  6
CONTINUOUS
  0
LAYER
  2
画層201
 70
    0
 62
7
  6
CONTINUOUS
  0
LAYER
  2
画層202
 70
    0
 62
7
  6
CONTINUOUS
  0
LAYER
  2
画層203
 70
    0
 62
7
  6
CONTINUOUS
  0
LAYER
  2
画層204
 70
    0
 62
7
  6
CONTINUOUS
  0
LAYER
  2
画層205
 70
    0
 62
7
  6
CONTINUOUS
  0
LAYER
  2
画層206
 70
    0
 62
7
  6
CONTINUOUS
  0
LAYER
  2
画層207
 70
    0
 62
7
  6
CONTINUOUS
  0
LAYER
  2
画層208
 70
    0
 62
7
  6
CONTINUOUS
  0
LAYER
  2
画層209
 70
    0
 62
7
  6
CONTINUOUS
  0
LAYER
  2
画層210
 70
    0
 62
7
  6
CONTINUOUS
  0
LAYER
  2
画層211
 70
    0
 62
7
  6
CONTINUOUS
  0
LAYER
  2
画層212
 70
    0
 62
7
  6
CONTINUOUS
  0
LAYER
  2
画層213
 70
    0
 62
7
  6
CONTINUOUS
  0
LAYER
  2
画層214
 70
    0
 62
7
  6
CONTINUOUS
  0
LAYER
  2
画層215
 70
    0
 62
7
  6
CONTINUOUS
  0
LAYER
  2
画層216
 70
    0
 62
7
  6
CONTINUOUS
  0
LAYER
  2
画層217
 70
    0
 62
7
  6
CONTINUOUS
  0
LAYER
  2
画層218
 70
    0
 62
7
  6
CONTINUOUS
  0
LAYER
  2
画層219
 70
    0
 62
7
  6
CONTINUOUS
  0
LAYER
  2
画層220
 70
    0
 62
7
  6
CONTINUOUS
  0
LAYER
  2
画層221
 70
    0
 62
7
  6
CONTINUOUS
  0
LAYER
  2
画層222
 70
    0
 62
7
  6
CONTINUOUS
  0
LAYER
  2
画層223
 70
    0
 62
7
  6
CONTINUOUS
  0
LAYER
  2
画層224
 70
    0
 62
7
  6
CONTINUOUS
  0
LAYER
  2
画層225
 70
    0
 62
7
  6
CONTINUOUS
  0
LAYER
  2
画層226
 70
    0
 62
7
  6
CONTINUOUS
  0
LAYER
  2
画層227
 70
    0
 62
7
  6
CONTINUOUS
  0
LAYER
  2
画層228
 70
    0
 62
7
  6
CONTINUOUS
  0
LAYER
  2
画層229
 70
    0
 62
7
  6
CONTINUOUS
  0
LAYER
  2
画層230
 70
    0
 62
7
  6
CONTINUOUS
  0
LAYER
  2
画層231
 70
    0
 62
7
  6
CONTINUOUS
  0
LAYER
  2
画層232
 70
    0
 62
7
  6
CONTINUOUS
  0
LAYER
  2
画層233
 70
    0
 62
7
  6
CONTINUOUS
  0
LAYER
  2
画層234
 70
    0
 62
7
  6
CONTINUOUS
  0
LAYER
  2
画層235
 70
    0
 62
7
  6
CONTINUOUS
  0
LAYER
  2
画層236
 70
    0
 62
7
  6
CONTINUOUS
  0
LAYER
  2
画層237
 70
    0
 62
7
  6
CONTINUOUS
  0
LAYER
  2
画層238
 70
    0
 62
7
  6
CONTINUOUS
  0
LAYER
  2
画層239
 70
    0
 62
7
  6
CONTINUOUS
  0
LAYER
  2
画層240
 70
    0
 62
7
  6
CONTINUOUS
  0
LAYER
  2
画層241
 70
    0
 62
7
  6
CONTINUOUS
  0
LAYER
  2
画層242
 70
    0
 62
7
  6
CONTINUOUS
  0
LAYER
  2
画層243
 70
    0
 62
7
  6
CONTINUOUS
  0
LAYER
  2
画層244
 70
    0
 62
7
  6
CONTINUOUS
  0
LAYER
  2
画層245
 70
    0
 62
7
  6
CONTINUOUS
  0
LAYER
  2
画層246
 70
    0
 62
7
  6
CONTINUOUS
  0
LAYER
  2
画層247
 70
    0
 62
7
  6
CONTINUOUS
  0
LAYER
  2
画層248
 70
    0
 62
7
  6
CONTINUOUS
  0
LAYER
  2
画層249
 70
    0
 62
7
  6
CONTINUOUS
  0
LAYER
  2
画層250
 70
    0
 62
7
  6
CONTINUOUS
  0
LAYER
  2
画層251
 70
    0
 62
7
  6
CONTINUOUS
  0
LAYER
  2
画層252
 70
    0
 62
7
  6
CONTINUOUS
  0
LAYER
  2
画層253
 70
    0
 62
7
  6
CONTINUOUS
  0
LAYER
  2
画層254
 70
    0
 62
7
  6
CONTINUOUS
  0
LAYER
  2
画層255
 70
    0
 62
7
  6
CONTINUOUS
  0
LAYER
  2
0
 70
   64
 62
    7
  6
CONTINUOUS
  0
ENDTAB
  0
TABLE
  2
STYLE
 70
     1
  0
STYLE
  2
Standard
 70
     0
 40
0.0
 41
1.0
 50
0.0
 71
     0
 42
3.2
  3
TXT
  4
BIGFONT
  0
STYLE
  2
Font_0
 70
     0
 40
0.0
 41
1.0
 50
0.0
 71
     0
 42
3.2
  3
txt
  4
BIGFONT
  0
ENDTAB
  0
ENDSEC
  0
SECTION
  2
BLOCKS
  0
BLOCK
  8
1
  2
BLKF054
 70
    0
 10
0
 20
0
 30
0.0
  3
BLKF054
  1

  0
TEXT
  8
1
 62
4
  6
BYLAYER
 62
4
 10
194.200219750404
 20
211.575744628906
 40
3.200000047684
  1
9.5
  7
Font_0
  0
LINE
  8
1
  6
CONTINUOUS
 62
4
 10
192.117515
 20
210.60611
 11
201.617515
 21
210.60611
  0
LINE
  8
1
  6
CONTINUOUS
 62
4
 10
201.617515
 20
189.796322
 11
201.617515
 21
211.60611
  0
LINE
  8
1
  6
CONTINUOUS
 62
4
 10
189.117515
 20
210.60611
 11
192.117515
 21
210.60611
  0
LINE
  8
1
  6
CONTINUOUS
 62
4
 10
192.117515
 20
210.60611
 11
189.219737
 21
211.382567
  0
LINE
  8
1
  6
CONTINUOUS
 62
4
 10
192.117515
 20
210.60611
 11
189.219737
 21
209.829653
  0
LINE
  8
1
  6
CONTINUOUS
 62
4
 10
201.617515
 20
210.60611
 11
204.617515
 21
210.60611
  0
LINE
  8
1
  6
CONTINUOUS
 62
4
 10
201.617515
 20
210.60611
 11
204.515292
 21
211.382567
  0
LINE
  8
1
  6
CONTINUOUS
 62
4
 10
201.617515
 20
210.60611
 11
204.515292
 21
209.829653
  0
ENDBLK
  0
BLOCK
  8
1
  2
BLKF053
 70
    0
 10
0
 20
0
 30
0.0
  3
BLKF053
  1

  0
TEXT
  8
1
 62
4
  6
BYLAYER
 62
4
 10
262.917504906654
 20
217.106109619141
 40
3.200000047684
  1
148
  7
Font_0
  0
LINE
  8
1
  6
CONTINUOUS
 62
4
 10
192.117515
 20
216.60611
 11
340.117515
 21
216.60611
  0
LINE
  8
1
  6
CONTINUOUS
 62
4
 10
192.117515
 20
216.60611
 11
195.015292
 21
217.382567
  0
LINE
  8
1
  6
CONTINUOUS
 62
4
 10
192.117515
 20
216.60611
 11
195.015292
 21
215.829653
  0
LINE
  8
1
  6
CONTINUOUS
 62
4
 10
340.117515
 20
216.60611
 11
337.219737
 21
217.382567
  0
LINE
  8
1
  6
CONTINUOUS
 62
4
 10
340.117515
 20
216.60611
 11
337.219737
 21
215.829653
  0
LINE
  8
1
  6
CONTINUOUS
 62
4
 10
192.117515
 20
188.508346
 11
192.117515
 21
217.60611
  0
LINE
  8
1
  6
CONTINUOUS
 62
4
 10
340.117515
 20
197.59168
 11
340.117515
 21
217.60611
  0
ENDBLK
  0
BLOCK
  8
1
  2
BLKF052
 70
    0
 10
0
 20
0
 30
0.0
  3
BLKF052
  1

  0
TEXT
  8
1
 62
4
  6
BYLAYER
 62
4
 10
177.969543457031
 20
177.391671776772
 40
3.200000047684
  1
%%c45
  7
Font_0
 50
90
  0
LINE
  8
1
  6
CONTINUOUS
 62
4
 10
178.469532
 20
158.09168
 11
178.469532
 21
203.09168
  0
LINE
  8
1
  6
CONTINUOUS
 62
4
 10
178.469532
 20
158.09168
 11
177.693075
 21
160.989457
  0
LINE
  8
1
  6
CONTINUOUS
 62
4
 10
178.469532
 20
158.09168
 11
179.245989
 21
160.989457
  0
LINE
  8
1
  6
CONTINUOUS
 62
4
 10
178.469532
 20
203.09168
 11
177.693075
 21
200.193902
  0
LINE
  8
1
  6
CONTINUOUS
 62
4
 10
178.469532
 20
203.09168
 11
179.245989
 21
200.193902
  0
LINE
  8
1
  6
CONTINUOUS
 62
4
 10
221.117515
 20
158.09168
 11
177.469532
 21
158.09168
  0
LINE
  8
1
  6
CONTINUOUS
 62
4
 10
221.117515
 20
203.09168
 11
177.469532
 21
203.09168
  0
ENDBLK
  0
BLOCK
  8
1
  2
BLKF051
 70
    0
 10
0
 20
0
 30
0.0
  3
BLKF051
  1

  0
TEXT
  8
1
 62
4
  6
BYLAYER
 62
4
 10
183.969543457031
 20
244.450082421303
 40
3.200000047684
  1
12
  7
Font_0
 50
90
  0
LINE
  8
1
  6
CONTINUOUS
 62
4
 10
184.469532
 20
240.050092
 11
184.469532
 21
252.050092
  0
LINE
  8
1
  6
CONTINUOUS
 62
4
 10
184.469532
 20
240.050092
 11
183.693075
 21
242.947869
  0
LINE
  8
1
  6
CONTINUOUS
 62
4
 10
184.469532
 20
240.050092
 11
185.245989
 21
242.947869
  0
LINE
  8
1
  6
CONTINUOUS
 62
4
 10
184.469532
 20
252.050092
 11
183.693075
 21
249.152314
  0
LINE
  8
1
  6
CONTINUOUS
 62
4
 10
184.469532
 20
252.050092
 11
185.245989
 21
249.152314
  0
LINE
  8
1
  6
CONTINUOUS
 62
4
 10
191.717515
 20
240.050092
 11
183.469532
 21
240.050092
  0
LINE
  8
1
  6
CONTINUOUS
 62
4
 10
191.717515
 20
252.050092
 11
183.469532
 21
252.050092
  0
ENDBLK
  0
BLOCK
  8
1
  2
BLKF050
 70
    0
 10
0
 20
0
 30
0.0
  3
BLKF050
  1

  0
TEXT
  8
1
 62
4
  6
BYLAYER
 62
4
 10
177.969543457031
 20
244.450082421303
 40
3.200000047684
  1
23
  7
Font_0
 50
90
  0
LINE
  8
1
  6
CONTINUOUS
 62
4
 10
178.469532
 20
234.550092
 11
178.469532
 21
257.550092
  0
LINE
  8
1
  6
CONTINUOUS
 62
4
 10
178.469532
 20
234.550092
 11
177.693075
 21
237.447869
  0
LINE
  8
1
  6
CONTINUOUS
 62
4
 10
178.469532
 20
234.550092
 11
179.245989
 21
237.447869
  0
LINE
  8
1
  6
CONTINUOUS
 62
4
 10
178.469532
 20
257.550092
 11
177.693075
 21
254.652314
  0
LINE
  8
1
  6
CONTINUOUS
 62
4
 10
178.469532
 20
257.550092
 11
179.245989
 21
254.652314
  0
LINE
  8
1
  6
CONTINUOUS
 62
4
 10
195.217515
 20
234.550092
 11
177.469532
 21
234.550092
  0
LINE
  8
1
  6
CONTINUOUS
 62
4
 10
195.217515
 20
257.550092
 11
177.469532
 21
257.550092
  0
ENDBLK
  0
BLOCK
  8
1
  2
BLKF049
 70
    0
 10
0
 20
0
 30
0.0
  3
BLKF049
  1

  0
TEXT
  8
1
 62
4
  6
BYLAYER
 62
4
 10
260.617517113686
 20
277.073913574219
 40
3.200000047684
  1
79
  7
Font_0
  0
LINE
  8
1
  6
CONTINUOUS
 62
4
 10
222.717515
 20
276.573917
 11
301.717515
 21
276.573917
  0
LINE
  8
1
  6
CONTINUOUS
 62
4
 10
222.717515
 20
276.573917
 11
225.615292
 21
277.350374
  0
LINE
  8
1
  6
CONTINUOUS
 62
4
 10
222.717515
 20
276.573917
 11
225.615292
 21
275.79746
  0
LINE
  8
1
  6
CONTINUOUS
 62
4
 10
301.717515
 20
276.573917
 11
298.819737
 21
277.350374
  0
LINE
  8
1
  6
CONTINUOUS
 62
4
 10
301.717515
 20
276.573917
 11
298.819737
 21
275.79746
  0
LINE
  8
1
  6
CONTINUOUS
 62
4
 10
222.717515
 20
269.550092
 11
222.717515
 21
277.573917
  0
ENDBLK
  0
BLOCK
  8
1
  2
BLKF048
 70
    0
 10
0
 20
0
 30
0.0
  3
BLKF048
  1

  0
TEXT
  8
1
 62
4
  6
BYLAYER
 62
4
 10
194.483361840248
 20
277.294616699219
 40
3.200000047684
  1
9.5
  7
Font_0
  0
LINE
  8
1
  6
CONTINUOUS
 62
4
 10
192.717515
 20
276.468673
 11
202.217515
 21
276.468673
  0
LINE
  8
1
  6
CONTINUOUS
 62
4
 10
202.217515
 20
260.611304
 11
202.217515
 21
277.468673
  0
LINE
  8
1
  6
CONTINUOUS
 62
4
 10
189.717515
 20
276.468673
 11
192.717515
 21
276.468673
  0
LINE
  8
1
  6
CONTINUOUS
 62
4
 10
192.717515
 20
276.468673
 11
189.819737
 21
277.24513
  0
LINE
  8
1
  6
CONTINUOUS
 62
4
 10
192.717515
 20
276.468673
 11
189.819737
 21
275.692216
  0
LINE
  8
1
  6
CONTINUOUS
 62
4
 10
202.217515
 20
276.468673
 11
205.217515
 21
276.468673
  0
LINE
  8
1
  6
CONTINUOUS
 62
4
 10
202.217515
 20
276.468673
 11
205.115292
 21
277.24513
  0
LINE
  8
1
  6
CONTINUOUS
 62
4
 10
202.217515
 20
276.468673
 11
205.115292
 21
275.692216
  0
ENDBLK
  0
BLOCK
  8
1
  2
BLKF047
 70
    0
 10
0
 20
0
 30
0.0
  3
BLKF047
  1

  0
TEXT
  8
1
 62
4
  6
BYLAYER
 62
4
 10
319.617486596108
 20
282.968658447266
 40
3.200000047684
  1
39
  7
Font_0
  0
LINE
  8
1
  6
CONTINUOUS
 62
4
 10
301.717515
 20
282.468673
 11
340.717515
 21
282.468673
  0
LINE
  8
1
  6
CONTINUOUS
 62
4
 10
301.717515
 20
282.468673
 11
304.615292
 21
283.24513
  0
LINE
  8
1
  6
CONTINUOUS
 62
4
 10
301.717515
 20
282.468673
 11
304.615292
 21
281.692216
  0
LINE
  8
1
  6
CONTINUOUS
 62
4
 10
340.717515
 20
282.468673
 11
337.819737
 21
283.24513
  0
LINE
  8
1
  6
CONTINUOUS
 62
4
 10
340.717515
 20
282.468673
 11
337.819737
 21
281.692216
  0
LINE
  8
1
  6
CONTINUOUS
 62
4
 10
340.717515
 20
259.050092
 11
340.717515
 21
283.468673
  0
ENDBLK
  0
BLOCK
  8
1
  2
BLKF046
 70
    0
 10
0
 20
0
 30
0.0
  3
BLKF046
  1

  0
TEXT
  8
1
 62
4
  6
BYLAYER
 62
4
 10
244.017526268959
 20
282.968658447266
 40
3.200000047684
  1
109
  7
Font_0
  0
LINE
  8
1
  6
CONTINUOUS
 62
4
 10
192.717515
 20
282.468673
 11
301.717515
 21
282.468673
  0
LINE
  8
1
  6
CONTINUOUS
 62
4
 10
192.717515
 20
282.468673
 11
195.615292
 21
283.24513
  0
LINE
  8
1
  6
CONTINUOUS
 62
4
 10
192.717515
 20
282.468673
 11
195.615292
 21
281.692216
  0
LINE
  8
1
  6
CONTINUOUS
 62
4
 10
301.717515
 20
282.468673
 11
298.819737
 21
283.24513
  0
LINE
  8
1
  6
CONTINUOUS
 62
4
 10
301.717515
 20
282.468673
 11
298.819737
 21
281.692216
  0
LINE
  8
1
  6
CONTINUOUS
 62
4
 10
192.717515
 20
255.050092
 11
192.717515
 21
283.468673
  0
LINE
  8
1
  6
CONTINUOUS
 62
4
 10
301.717515
 20
269.550092
 11
301.717515
 21
283.468673
  0
ENDBLK
  0
BLOCK
  8
1
  2
BLKF045
 70
    0
 10
0
 20
0
 30
0.0
  3
BLKF045
  1

  0
LINE
  8
1
  6
CONTINUOUS
 62
4
 10
246.117515
 20
237.550092
 11
252.117515
 21
231.550092
  0
LINE
  8
1
  6
CONTINUOUS
 62
4
 10
247.531729
 20
237.550092
 11
252.117515
 21
232.964305
  0
LINE
  8
1
  6
CONTINUOUS
 62
4
 10
248.945942
 20
237.550092
 11
252.117515
 21
234.378519
  0
LINE
  8
1
  6
CONTINUOUS
 62
4
 10
250.360156
 20
237.550092
 11
252.117515
 21
235.792732
  0
LINE
  8
1
  6
CONTINUOUS
 62
4
 10
251.774369
 20
237.550092
 11
252.117515
 21
237.206946
  0
LINE
  8
1
  6
CONTINUOUS
 62
4
 10
246.117515
 20
236.135878
 11
252.117515
 21
230.135878
  0
LINE
  8
1
  6
CONTINUOUS
 62
4
 10
246.117515
 20
234.721665
 11
252.117515
 21
228.721665
  0
LINE
  8
1
  6
CONTINUOUS
 62
4
 10
246.117515
 20
233.307451
 11
252.117515
 21
227.307451
  0
LINE
  8
1
  6
CONTINUOUS
 62
4
 10
246.117515
 20
231.893237
 11
252.117515
 21
225.893237
  0
LINE
  8
1
  6
CONTINUOUS
 62
4
 10
246.117515
 20
230.479024
 11
252.117515
 21
224.479024
  0
LINE
  8
1
  6
CONTINUOUS
 62
4
 10
246.117515
 20
229.06481
 11
251.632234
 21
223.550092
  0
LINE
  8
1
  6
CONTINUOUS
 62
4
 10
246.117515
 20
227.650597
 11
250.21802
 21
223.550092
  0
LINE
  8
1
  6
CONTINUOUS
 62
4
 10
246.117515
 20
226.236383
 11
248.803806
 21
223.550092
  0
LINE
  8
1
  6
CONTINUOUS
 62
4
 10
246.117515
 20
224.82217
 11
247.389593
 21
223.550092
  0
ENDBLK
  0
BLOCK
  8
1
  2
BLKF044
 70
    0
 10
0
 20
0
 30
0.0
  3
BLKF044
  1

  0
LINE
  8
1
  6
CONTINUOUS
 62
4
 10
246.117515
 20
236.135878
 11
247.531729
 21
237.550092
  0
LINE
  8
1
  6
CONTINUOUS
 62
4
 10
246.117515
 20
234.721665
 11
248.945942
 21
237.550092
  0
LINE
  8
1
  6
CONTINUOUS
 62
4
 10
246.117515
 20
233.307451
 11
250.360156
 21
237.550092
  0
LINE
  8
1
  6
CONTINUOUS
 62
4
 10
246.117515
 20
231.893237
 11
251.774369
 21
237.550092
  0
LINE
  8
1
  6
CONTINUOUS
 62
4
 10
246.117515
 20
230.479024
 11
252.117515
 21
236.479024
  0
LINE
  8
1
  6
CONTINUOUS
 62
4
 10
246.117515
 20
229.06481
 11
252.117515
 21
235.06481
  0
LINE
  8
1
  6
CONTINUOUS
 62
4
 10
246.117515
 20
227.650597
 11
252.117515
 21
233.650597
  0
LINE
  8
1
  6
CONTINUOUS
 62
4
 10
246.117515
 20
226.236383
 11
252.117515
 21
232.236383
  0
LINE
  8
1
  6
CONTINUOUS
 62
4
 10
246.117515
 20
224.82217
 11
252.117515
 21
230.82217
  0
LINE
  8
1
  6
CONTINUOUS
 62
4
 10
246.259651
 20
223.550092
 11
252.117515
 21
229.407956
  0
LINE
  8
1
  6
CONTINUOUS
 62
4
 10
247.673864
 20
223.550092
 11
252.117515
 21
227.993743
  0
LINE
  8
1
  6
CONTINUOUS
 62
4
 10
249.088078
 20
223.550092
 11
252.117515
 21
226.579529
  0
LINE
  8
1
  6
CONTINUOUS
 62
4
 10
250.502291
 20
223.550092
 11
252.117515
 21
225.165315
  0
LINE
  8
1
  6
CONTINUOUS
 62
4
 10
251.916505
 20
223.550092
 11
252.117515
 21
223.751102
  0
ENDBLK
  0
BLOCK
  8
1
  2
BLKF043
 70
    0
 10
0
 20
0
 30
0.0
  3
BLKF043
  1

  0
LINE
  8
1
  6
CONTINUOUS
 62
4
 10
264.117515
 20
237.550092
 11
270.117515
 21
231.550092
  0
LINE
  8
1
  6
CONTINUOUS
 62
4
 10
265.531729
 20
237.550092
 11
270.117515
 21
232.964305
  0
LINE
  8
1
  6
CONTINUOUS
 62
4
 10
266.945942
 20
237.550092
 11
270.117515
 21
234.378519
  0
LINE
  8
1
  6
CONTINUOUS
 62
4
 10
268.360156
 20
237.550092
 11
270.117515
 21
235.792732
  0
LINE
  8
1
  6
CONTINUOUS
 62
4
 10
269.774369
 20
237.550092
 11
270.117515
 21
237.206946
  0
LINE
  8
1
  6
CONTINUOUS
 62
4
 10
264.117515
 20
236.135878
 11
270.117515
 21
230.135878
  0
LINE
  8
1
  6
CONTINUOUS
 62
4
 10
264.117515
 20
234.721665
 11
270.117515
 21
228.721665
  0
LINE
  8
1
  6
CONTINUOUS
 62
4
 10
264.117515
 20
233.307451
 11
270.117515
 21
227.307451
  0
LINE
  8
1
  6
CONTINUOUS
 62
4
 10
264.117515
 20
231.893237
 11
270.117515
 21
225.893237
  0
LINE
  8
1
  6
CONTINUOUS
 62
4
 10
264.117515
 20
230.479024
 11
270.117515
 21
224.479024
  0
LINE
  8
1
  6
CONTINUOUS
 62
4
 10
264.117515
 20
229.06481
 11
269.632234
 21
223.550092
  0
LINE
  8
1
  6
CONTINUOUS
 62
4
 10
264.117515
 20
227.650597
 11
268.21802
 21
223.550092
  0
LINE
  8
1
  6
CONTINUOUS
 62
4
 10
264.117515
 20
226.236383
 11
266.803806
 21
223.550092
  0
LINE
  8
1
  6
CONTINUOUS
 62
4
 10
264.117515
 20
224.82217
 11
265.389593
 21
223.550092
  0
ENDBLK
  0
BLOCK
  8
1
  2
BLKF042
 70
    0
 10
0
 20
0
 30
0.0
  3
BLKF042
  1

  0
LINE
  8
1
  6
CONTINUOUS
 62
4
 10
264.117515
 20
236.135878
 11
265.531729
 21
237.550092
  0
LINE
  8
1
  6
CONTINUOUS
 62
4
 10
264.117515
 20
234.721665
 11
266.945942
 21
237.550092
  0
LINE
  8
1
  6
CONTINUOUS
 62
4
 10
264.117515
 20
233.307451
 11
268.360156
 21
237.550092
  0
LINE
  8
1
  6
CONTINUOUS
 62
4
 10
264.117515
 20
231.893237
 11
269.774369
 21
237.550092
  0
LINE
  8
1
  6
CONTINUOUS
 62
4
 10
264.117515
 20
230.479024
 11
270.117515
 21
236.479024
  0
LINE
  8
1
  6
CONTINUOUS
 62
4
 10
264.117515
 20
229.06481
 11
270.117515
 21
235.06481
  0
LINE
  8
1
  6
CONTINUOUS
 62
4
 10
264.117515
 20
227.650597
 11
270.117515
 21
233.650597
  0
LINE
  8
1
  6
CONTINUOUS
 62
4
 10
264.117515
 20
226.236383
 11
270.117515
 21
232.236383
  0
LINE
  8
1
  6
CONTINUOUS
 62
4
 10
264.117515
 20
224.82217
 11
270.117515
 21
230.82217
  0
LINE
  8
1
  6
CONTINUOUS
 62
4
 10
264.259651
 20
223.550092
 11
270.117515
 21
229.407956
  0
LINE
  8
1
  6
CONTINUOUS
 62
4
 10
265.673864
 20
223.550092
 11
270.117515
 21
227.993743
  0
LINE
  8
1
  6
CONTINUOUS
 62
4
 10
267.088078
 20
223.550092
 11
270.117515
 21
226.579529
  0
LINE
  8
1
  6
CONTINUOUS
 62
4
 10
268.502291
 20
223.550092
 11
270.117515
 21
225.165315
  0
LINE
  8
1
  6
CONTINUOUS
 62
4
 10
269.916505
 20
223.550092
 11
270.117515
 21
223.751102
  0
ENDBLK
  0
BLOCK
  8
1
  2
BLKF041
 70
    0
 10
0
 20
0
 30
0.0
  3
BLKF041
  1

  0
LINE
  8
1
  6
CONTINUOUS
 62
4
 10
282.117515
 20
237.550092
 11
288.117515
 21
231.550092
  0
LINE
  8
1
  6
CONTINUOUS
 62
4
 10
283.531729
 20
237.550092
 11
288.117515
 21
232.964305
  0
LINE
  8
1
  6
CONTINUOUS
 62
4
 10
284.945942
 20
237.550092
 11
288.117515
 21
234.378519
  0
LINE
  8
1
  6
CONTINUOUS
 62
4
 10
286.360156
 20
237.550092
 11
288.117515
 21
235.792732
  0
LINE
  8
1
  6
CONTINUOUS
 62
4
 10
287.774369
 20
237.550092
 11
288.117515
 21
237.206946
  0
LINE
  8
1
  6
CONTINUOUS
 62
4
 10
282.117515
 20
236.135878
 11
288.117515
 21
230.135878
  0
LINE
  8
1
  6
CONTINUOUS
 62
4
 10
282.117515
 20
234.721665
 11
288.117515
 21
228.721665
  0
LINE
  8
1
  6
CONTINUOUS
 62
4
 10
282.117515
 20
233.307451
 11
288.117515
 21
227.307451
  0
LINE
  8
1
  6
CONTINUOUS
 62
4
 10
282.117515
 20
231.893237
 11
288.117515
 21
225.893237
  0
LINE
  8
1
  6
CONTINUOUS
 62
4
 10
282.117515
 20
230.479024
 11
288.117515
 21
224.479024
  0
LINE
  8
1
  6
CONTINUOUS
 62
4
 10
282.117515
 20
229.06481
 11
287.632234
 21
223.550092
  0
LINE
  8
1
  6
CONTINUOUS
 62
4
 10
282.117515
 20
227.650597
 11
286.21802
 21
223.550092
  0
LINE
  8
1
  6
CONTINUOUS
 62
4
 10
282.117515
 20
226.236383
 11
284.803806
 21
223.550092
  0
LINE
  8
1
  6
CONTINUOUS
 62
4
 10
282.117515
 20
224.82217
 11
283.389593
 21
223.550092
  0
ENDBLK
  0
BLOCK
  8
1
  2
BLKF040
 70
    0
 10
0
 20
0
 30
0.0
  3
BLKF040
  1

  0
LINE
  8
1
  6
CONTINUOUS
 62
4
 10
282.117515
 20
236.135878
 11
283.531729
 21
237.550092
  0
LINE
  8
1
  6
CONTINUOUS
 62
4
 10
282.117515
 20
234.721665
 11
284.945942
 21
237.550092
  0
LINE
  8
1
  6
CONTINUOUS
 62
4
 10
282.117515
 20
233.307451
 11
286.360156
 21
237.550092
  0
LINE
  8
1
  6
CONTINUOUS
 62
4
 10
282.117515
 20
231.893237
 11
287.774369
 21
237.550092
  0
LINE
  8
1
  6
CONTINUOUS
 62
4
 10
282.117515
 20
230.479024
 11
288.117515
 21
236.479024
  0
LINE
  8
1
  6
CONTINUOUS
 62
4
 10
282.117515
 20
229.06481
 11
288.117515
 21
235.06481
  0
LINE
  8
1
  6
CONTINUOUS
 62
4
 10
282.117515
 20
227.650597
 11
288.117515
 21
233.650597
  0
LINE
  8
1
  6
CONTINUOUS
 62
4
 10
282.117515
 20
226.236383
 11
288.117515
 21
232.236383
  0
LINE
  8
1
  6
CONTINUOUS
 62
4
 10
282.117515
 20
224.82217
 11
288.117515
 21
230.82217
  0
LINE
  8
1
  6
CONTINUOUS
 62
4
 10
282.259651
 20
223.550092
 11
288.117515
 21
229.407956
  0
LINE
  8
1
  6
CONTINUOUS
 62
4
 10
283.673864
 20
223.550092
 11
288.117515
 21
227.993743
  0
LINE
  8
1
  6
CONTINUOUS
 62
4
 10
285.088078
 20
223.550092
 11
288.117515
 21
226.579529
  0
LINE
  8
1
  6
CONTINUOUS
 62
4
 10
286.502291
 20
223.550092
 11
288.117515
 21
225.165315
  0
LINE
  8
1
  6
CONTINUOUS
 62
4
 10
287.916505
 20
223.550092
 11
288.117515
 21
223.751102
  0
ENDBLK
  0
BLOCK
  8
1
  2
BLKF039
 70
    0
 10
0
 20
0
 30
0.0
  3
BLKF039
  1

  0
LINE
  8
1
  6
CONTINUOUS
 62
4
 10
246.117515
 20
268.550092
 11
252.117515
 21
262.550092
  0
LINE
  8
1
  6
CONTINUOUS
 62
4
 10
247.531729
 20
268.550092
 11
252.117515
 21
263.964305
  0
LINE
  8
1
  6
CONTINUOUS
 62
4
 10
248.945942
 20
268.550092
 11
252.117515
 21
265.378519
  0
LINE
  8
1
  6
CONTINUOUS
 62
4
 10
250.360156
 20
268.550092
 11
252.117515
 21
266.792732
  0
LINE
  8
1
  6
CONTINUOUS
 62
4
 10
251.774369
 20
268.550092
 11
252.117515
 21
268.206946
  0
LINE
  8
1
  6
CONTINUOUS
 62
4
 10
246.117515
 20
267.135878
 11
252.117515
 21
261.135878
  0
LINE
  8
1
  6
CONTINUOUS
 62
4
 10
246.117515
 20
265.721665
 11
252.117515
 21
259.721665
  0
LINE
  8
1
  6
CONTINUOUS
 62
4
 10
246.117515
 20
264.307451
 11
252.117515
 21
258.307451
  0
LINE
  8
1
  6
CONTINUOUS
 62
4
 10
246.117515
 20
262.893237
 11
252.117515
 21
256.893237
  0
LINE
  8
1
  6
CONTINUOUS
 62
4
 10
246.117515
 20
261.479024
 11
252.117515
 21
255.479024
  0
LINE
  8
1
  6
CONTINUOUS
 62
4
 10
246.117515
 20
260.06481
 11
251.632234
 21
254.550092
  0
LINE
  8
1
  6
CONTINUOUS
 62
4
 10
246.117515
 20
258.650597
 11
250.21802
 21
254.550092
  0
LINE
  8
1
  6
CONTINUOUS
 62
4
 10
246.117515
 20
257.236383
 11
248.803806
 21
254.550092
  0
LINE
  8
1
  6
CONTINUOUS
 62
4
 10
246.117515
 20
255.82217
 11
247.389593
 21
254.550092
  0
ENDBLK
  0
BLOCK
  8
1
  2
BLKF038
 70
    0
 10
0
 20
0
 30
0.0
  3
BLKF038
  1

  0
LINE
  8
1
  6
CONTINUOUS
 62
4
 10
246.117515
 20
267.135878
 11
247.531729
 21
268.550092
  0
LINE
  8
1
  6
CONTINUOUS
 62
4
 10
246.117515
 20
265.721665
 11
248.945942
 21
268.550092
  0
LINE
  8
1
  6
CONTINUOUS
 62
4
 10
246.117515
 20
264.307451
 11
250.360156
 21
268.550092
  0
LINE
  8
1
  6
CONTINUOUS
 62
4
 10
246.117515
 20
262.893237
 11
251.774369
 21
268.550092
  0
LINE
  8
1
  6
CONTINUOUS
 62
4
 10
246.117515
 20
261.479024
 11
252.117515
 21
267.479024
  0
LINE
  8
1
  6
CONTINUOUS
 62
4
 10
246.117515
 20
260.06481
 11
252.117515
 21
266.06481
  0
LINE
  8
1
  6
CONTINUOUS
 62
4
 10
246.117515
 20
258.650597
 11
252.117515
 21
264.650597
  0
LINE
  8
1
  6
CONTINUOUS
 62
4
 10
246.117515
 20
257.236383
 11
252.117515
 21
263.236383
  0
LINE
  8
1
  6
CONTINUOUS
 62
4
 10
246.117515
 20
255.82217
 11
252.117515
 21
261.82217
  0
LINE
  8
1
  6
CONTINUOUS
 62
4
 10
246.259651
 20
254.550092
 11
252.117515
 21
260.407956
  0
LINE
  8
1
  6
CONTINUOUS
 62
4
 10
247.673864
 20
254.550092
 11
252.117515
 21
258.993743
  0
LINE
  8
1
  6
CONTINUOUS
 62
4
 10
249.088078
 20
254.550092
 11
252.117515
 21
257.579529
  0
LINE
  8
1
  6
CONTINUOUS
 62
4
 10
250.502291
 20
254.550092
 11
252.117515
 21
256.165315
  0
LINE
  8
1
  6
CONTINUOUS
 62
4
 10
251.916505
 20
254.550092
 11
252.117515
 21
254.751102
  0
ENDBLK
  0
BLOCK
  8
1
  2
BLKF037
 70
    0
 10
0
 20
0
 30
0.0
  3
BLKF037
  1

  0
LINE
  8
1
  6
CONTINUOUS
 62
4
 10
264.117515
 20
268.550092
 11
270.117515
 21
262.550092
  0
LINE
  8
1
  6
CONTINUOUS
 62
4
 10
265.531729
 20
268.550092
 11
270.117515
 21
263.964305
  0
LINE
  8
1
  6
CONTINUOUS
 62
4
 10
266.945942
 20
268.550092
 11
270.117515
 21
265.378519
  0
LINE
  8
1
  6
CONTINUOUS
 62
4
 10
268.360156
 20
268.550092
 11
270.117515
 21
266.792732
  0
LINE
  8
1
  6
CONTINUOUS
 62
4
 10
269.774369
 20
268.550092
 11
270.117515
 21
268.206946
  0
LINE
  8
1
  6
CONTINUOUS
 62
4
 10
264.117515
 20
267.135878
 11
270.117515
 21
261.135878
  0
LINE
  8
1
  6
CONTINUOUS
 62
4
 10
264.117515
 20
265.721665
 11
270.117515
 21
259.721665
  0
LINE
  8
1
  6
CONTINUOUS
 62
4
 10
264.117515
 20
264.307451
 11
270.117515
 21
258.307451
  0
LINE
  8
1
  6
CONTINUOUS
 62
4
 10
264.117515
 20
262.893237
 11
270.117515
 21
256.893237
  0
LINE
  8
1
  6
CONTINUOUS
 62
4
 10
264.117515
 20
261.479024
 11
270.117515
 21
255.479024
  0
LINE
  8
1
  6
CONTINUOUS
 62
4
 10
264.117515
 20
260.06481
 11
269.632234
 21
254.550092
  0
LINE
  8
1
  6
CONTINUOUS
 62
4
 10
264.117515
 20
258.650597
 11
268.21802
 21
254.550092
  0
LINE
  8
1
  6
CONTINUOUS
 62
4
 10
264.117515
 20
257.236383
 11
266.803806
 21
254.550092
  0
LINE
  8
1
  6
CONTINUOUS
 62
4
 10
264.117515
 20
255.82217
 11
265.389593
 21
254.550092
  0
ENDBLK
  0
BLOCK
  8
1
  2
BLKF036
 70
    0
 10
0
 20
0
 30
0.0
  3
BLKF036
  1

  0
LINE
  8
1
  6
CONTINUOUS
 62
4
 10
264.117515
 20
267.135878
 11
265.531729
 21
268.550092
  0
LINE
  8
1
  6
CONTINUOUS
 62
4
 10
264.117515
 20
265.721665
 11
266.945942
 21
268.550092
  0
LINE
  8
1
  6
CONTINUOUS
 62
4
 10
264.117515
 20
264.307451
 11
268.360156
 21
268.550092
  0
LINE
  8
1
  6
CONTINUOUS
 62
4
 10
264.117515
 20
262.893237
 11
269.774369
 21
268.550092
  0
LINE
  8
1
  6
CONTINUOUS
 62
4
 10
264.117515
 20
261.479024
 11
270.117515
 21
267.479024
  0
LINE
  8
1
  6
CONTINUOUS
 62
4
 10
264.117515
 20
260.06481
 11
270.117515
 21
266.06481
  0
LINE
  8
1
  6
CONTINUOUS
 62
4
 10
264.117515
 20
258.650597
 11
270.117515
 21
264.650597
  0
LINE
  8
1
  6
CONTINUOUS
 62
4
 10
264.117515
 20
257.236383
 11
270.117515
 21
263.236383
  0
LINE
  8
1
  6
CONTINUOUS
 62
4
 10
264.117515
 20
255.82217
 11
270.117515
 21
261.82217
  0
LINE
  8
1
  6
CONTINUOUS
 62
4
 10
264.259651
 20
254.550092
 11
270.117515
 21
260.407956
  0
LINE
  8
1
  6
CONTINUOUS
 62
4
 10
265.673864
 20
254.550092
 11
270.117515
 21
258.993743
  0
LINE
  8
1
  6
CONTINUOUS
 62
4
 10
267.088078
 20
254.550092
 11
270.117515
 21
257.579529
  0
LINE
  8
1
  6
CONTINUOUS
 62
4
 10
268.502291
 20
254.550092
 11
270.117515
 21
256.165315
  0
LINE
  8
1
  6
CONTINUOUS
 62
4
 10
269.916505
 20
254.550092
 11
270.117515
 21
254.751102
  0
ENDBLK
  0
BLOCK
  8
1
  2
BLKF035
 70
    0
 10
0
 20
0
 30
0.0
  3
BLKF035
  1

  0
LINE
  8
1
  6
CONTINUOUS
 62
4
 10
282.117515
 20
268.550092
 11
288.117515
 21
262.550092
  0
LINE
  8
1
  6
CONTINUOUS
 62
4
 10
283.531729
 20
268.550092
 11
288.117515
 21
263.964305
  0
LINE
  8
1
  6
CONTINUOUS
 62
4
 10
284.945942
 20
268.550092
 11
288.117515
 21
265.378519
  0
LINE
  8
1
  6
CONTINUOUS
 62
4
 10
286.360156
 20
268.550092
 11
288.117515
 21
266.792732
  0
LINE
  8
1
  6
CONTINUOUS
 62
4
 10
287.774369
 20
268.550092
 11
288.117515
 21
268.206946
  0
LINE
  8
1
  6
CONTINUOUS
 62
4
 10
282.117515
 20
267.135878
 11
288.117515
 21
261.135878
  0
LINE
  8
1
  6
CONTINUOUS
 62
4
 10
282.117515
 20
265.721665
 11
288.117515
 21
259.721665
  0
LINE
  8
1
  6
CONTINUOUS
 62
4
 10
282.117515
 20
264.307451
 11
288.117515
 21
258.307451
  0
LINE
  8
1
  6
CONTINUOUS
 62
4
 10
282.117515
 20
262.893237
 11
288.117515
 21
256.893237
  0
LINE
  8
1
  6
CONTINUOUS
 62
4
 10
282.117515
 20
261.479024
 11
288.117515
 21
255.479024
  0
LINE
  8
1
  6
CONTINUOUS
 62
4
 10
282.117515
 20
260.06481
 11
287.632234
 21
254.550092
  0
LINE
  8
1
  6
CONTINUOUS
 62
4
 10
282.117515
 20
258.650597
 11
286.21802
 21
254.550092
  0
LINE
  8
1
  6
CONTINUOUS
 62
4
 10
282.117515
 20
257.236383
 11
284.803806
 21
254.550092
  0
LINE
  8
1
  6
CONTINUOUS
 62
4
 10
282.117515
 20
255.82217
 11
283.389593
 21
254.550092
  0
ENDBLK
  0
BLOCK
  8
1
  2
BLKF034
 70
    0
 10
0
 20
0
 30
0.0
  3
BLKF034
  1

  0
LINE
  8
1
  6
CONTINUOUS
 62
4
 10
282.117515
 20
267.135878
 11
283.531729
 21
268.550092
  0
LINE
  8
1
  6
CONTINUOUS
 62
4
 10
282.117515
 20
265.721665
 11
284.945942
 21
268.550092
  0
LINE
  8
1
  6
CONTINUOUS
 62
4
 10
282.117515
 20
264.307451
 11
286.360156
 21
268.550092
  0
LINE
  8
1
  6
CONTINUOUS
 62
4
 10
282.117515
 20
262.893237
 11
287.774369
 21
268.550092
  0
LINE
  8
1
  6
CONTINUOUS
 62
4
 10
282.117515
 20
261.479024
 11
288.117515
 21
267.479024
  0
LINE
  8
1
  6
CONTINUOUS
 62
4
 10
282.117515
 20
260.06481
 11
288.117515
 21
266.06481
  0
LINE
  8
1
  6
CONTINUOUS
 62
4
 10
282.117515
 20
258.650597
 11
288.117515
 21
264.650597
  0
LINE
  8
1
  6
CONTINUOUS
 62
4
 10
282.117515
 20
257.236383
 11
288.117515
 21
263.236383
  0
LINE
  8
1
  6
CONTINUOUS
 62
4
 10
282.117515
 20
255.82217
 11
288.117515
 21
261.82217
  0
LINE
  8
1
  6
CONTINUOUS
 62
4
 10
282.259651
 20
254.550092
 11
288.117515
 21
260.407956
  0
LINE
  8
1
  6
CONTINUOUS
 62
4
 10
283.673864
 20
254.550092
 11
288.117515
 21
258.993743
  0
LINE
  8
1
  6
CONTINUOUS
 62
4
 10
285.088078
 20
254.550092
 11
288.117515
 21
257.579529
  0
LINE
  8
1
  6
CONTINUOUS
 62
4
 10
286.502291
 20
254.550092
 11
288.117515
 21
256.165315
  0
LINE
  8
1
  6
CONTINUOUS
 62
4
 10
287.916505
 20
254.550092
 11
288.117515
 21
254.751102
  0
ENDBLK
  0
BLOCK
  8
1
  2
BLKF033
 70
    0
 10
0
 20
0
 30
0.0
  3
BLKF033
  1

  0
LINE
  8
1
  6
CONTINUOUS
 62
4
 10
246.117515
 20
203.09168
 11
252.117515
 21
197.09168
  0
LINE
  8
1
  6
CONTINUOUS
 62
4
 10
247.531729
 20
203.09168
 11
252.117515
 21
198.505893
  0
LINE
  8
1
  6
CONTINUOUS
 62
4
 10
248.945942
 20
203.09168
 11
252.117515
 21
199.920107
  0
LINE
  8
1
  6
CONTINUOUS
 62
4
 10
250.360156
 20
203.09168
 11
252.117515
 21
201.33432
  0
LINE
  8
1
  6
CONTINUOUS
 62
4
 10
251.774369
 20
203.09168
 11
252.117515
 21
202.748534
  0
LINE
  8
1
  6
CONTINUOUS
 62
4
 10
246.117515
 20
201.677466
 11
252.117515
 21
195.677466
  0
LINE
  8
1
  6
CONTINUOUS
 62
4
 10
246.117515
 20
200.263252
 11
252.117515
 21
194.263252
  0
LINE
  8
1
  6
CONTINUOUS
 62
4
 10
246.117515
 20
198.849039
 11
252.117515
 21
192.849039
  0
LINE
  8
1
  6
CONTINUOUS
 62
4
 10
246.117515
 20
197.434825
 11
252.117515
 21
191.434825
  0
LINE
  8
1
  6
CONTINUOUS
 62
4
 10
246.117515
 20
196.020612
 11
252.117515
 21
190.020612
  0
LINE
  8
1
  6
CONTINUOUS
 62
4
 10
246.117515
 20
194.606398
 11
252.117515
 21
188.606398
  0
LINE
  8
1
  6
CONTINUOUS
 62
4
 10
246.117515
 20
193.192185
 11
252.117515
 21
187.192185
  0
LINE
  8
1
  6
CONTINUOUS
 62
4
 10
246.117515
 20
191.777971
 11
252.117515
 21
185.777971
  0
LINE
  8
1
  6
CONTINUOUS
 62
4
 10
246.117515
 20
190.363757
 11
252.117515
 21
184.363757
  0
LINE
  8
1
  6
CONTINUOUS
 62
4
 10
246.117515
 20
188.949544
 11
252.117515
 21
182.949544
  0
LINE
  8
1
  6
CONTINUOUS
 62
4
 10
246.117515
 20
187.53533
 11
252.117515
 21
181.53533
  0
LINE
  8
1
  6
CONTINUOUS
 62
4
 10
246.117515
 20
186.121117
 11
252.117515
 21
180.121117
  0
LINE
  8
1
  6
CONTINUOUS
 62
4
 10
246.117515
 20
184.706903
 11
252.117515
 21
178.706903
  0
LINE
  8
1
  6
CONTINUOUS
 62
4
 10
246.117515
 20
183.29269
 11
252.117515
 21
177.29269
  0
LINE
  8
1
  6
CONTINUOUS
 62
4
 10
246.117515
 20
181.878476
 11
252.117515
 21
175.878476
  0
LINE
  8
1
  6
CONTINUOUS
 62
4
 10
246.117515
 20
180.464263
 11
252.117515
 21
174.464263
  0
LINE
  8
1
  6
CONTINUOUS
 62
4
 10
246.117515
 20
179.050049
 11
252.117515
 21
173.050049
  0
LINE
  8
1
  6
CONTINUOUS
 62
4
 10
246.117515
 20
177.635835
 11
252.117515
 21
171.635835
  0
LINE
  8
1
  6
CONTINUOUS
 62
4
 10
246.117515
 20
176.221622
 11
252.117515
 21
170.221622
  0
LINE
  8
1
  6
CONTINUOUS
 62
4
 10
246.117515
 20
174.807408
 11
252.117515
 21
168.807408
  0
LINE
  8
1
  6
CONTINUOUS
 62
4
 10
246.117515
 20
173.393195
 11
252.117515
 21
167.393195
  0
LINE
  8
1
  6
CONTINUOUS
 62
4
 10
246.117515
 20
171.978981
 11
252.117515
 21
165.978981
  0
LINE
  8
1
  6
CONTINUOUS
 62
4
 10
246.117515
 20
170.564768
 11
252.117515
 21
164.564768
  0
LINE
  8
1
  6
CONTINUOUS
 62
4
 10
246.117515
 20
169.150554
 11
252.117515
 21
163.150554
  0
LINE
  8
1
  6
CONTINUOUS
 62
4
 10
246.117515
 20
167.73634
 11
252.117515
 21
161.73634
  0
LINE
  8
1
  6
CONTINUOUS
 62
4
 10
246.117515
 20
166.322127
 11
252.117515
 21
160.322127
  0
LINE
  8
1
  6
CONTINUOUS
 62
4
 10
246.117515
 20
164.907913
 11
252.117515
 21
158.907913
  0
LINE
  8
1
  6
CONTINUOUS
 62
4
 10
246.117515
 20
163.4937
 11
251.519535
 21
158.09168
  0
LINE
  8
1
  6
CONTINUOUS
 62
4
 10
246.117515
 20
162.079486
 11
250.105322
 21
158.09168
  0
LINE
  8
1
  6
CONTINUOUS
 62
4
 10
246.117515
 20
160.665273
 11
248.691108
 21
158.09168
  0
LINE
  8
1
  6
CONTINUOUS
 62
4
 10
246.117515
 20
159.251059
 11
247.276895
 21
158.09168
  0
ENDBLK
  0
BLOCK
  8
1
  2
BLKF032
 70
    0
 10
0
 20
0
 30
0.0
  3
BLKF032
  1

  0
LINE
  8
1
  6
CONTINUOUS
 62
4
 10
246.117515
 20
201.677466
 11
247.531729
 21
203.09168
  0
LINE
  8
1
  6
CONTINUOUS
 62
4
 10
246.117515
 20
200.263252
 11
248.945942
 21
203.09168
  0
LINE
  8
1
  6
CONTINUOUS
 62
4
 10
246.117515
 20
198.849039
 11
250.360156
 21
203.09168
  0
LINE
  8
1
  6
CONTINUOUS
 62
4
 10
246.117515
 20
197.434825
 11
251.774369
 21
203.09168
  0
LINE
  8
1
  6
CONTINUOUS
 62
4
 10
246.117515
 20
196.020612
 11
252.117515
 21
202.020612
  0
LINE
  8
1
  6
CONTINUOUS
 62
4
 10
246.117515
 20
194.606398
 11
252.117515
 21
200.606398
  0
LINE
  8
1
  6
CONTINUOUS
 62
4
 10
246.117515
 20
193.192185
 11
252.117515
 21
199.192185
  0
LINE
  8
1
  6
CONTINUOUS
 62
4
 10
246.117515
 20
191.777971
 11
252.117515
 21
197.777971
  0
LINE
  8
1
  6
CONTINUOUS
 62
4
 10
246.117515
 20
190.363757
 11
252.117515
 21
196.363757
  0
LINE
  8
1
  6
CONTINUOUS
 62
4
 10
246.117515
 20
188.949544
 11
252.117515
 21
194.949544
  0
LINE
  8
1
  6
CONTINUOUS
 62
4
 10
246.117515
 20
187.53533
 11
252.117515
 21
193.53533
  0
LINE
  8
1
  6
CONTINUOUS
 62
4
 10
246.117515
 20
186.121117
 11
252.117515
 21
192.121117
  0
LINE
  8
1
  6
CONTINUOUS
 62
4
 10
246.117515
 20
184.706903
 11
252.117515
 21
190.706903
  0
LINE
  8
1
  6
CONTINUOUS
 62
4
 10
246.117515
 20
183.29269
 11
252.117515
 21
189.29269
  0
LINE
  8
1
  6
CONTINUOUS
 62
4
 10
246.117515
 20
181.878476
 11
252.117515
 21
187.878476
  0
LINE
  8
1
  6
CONTINUOUS
 62
4
 10
246.117515
 20
180.464263
 11
252.117515
 21
186.464263
  0
LINE
  8
1
  6
CONTINUOUS
 62
4
 10
246.117515
 20
179.050049
 11
252.117515
 21
185.050049
  0
LINE
  8
1
  6
CONTINUOUS
 62
4
 10
246.117515
 20
177.635835
 11
252.117515
 21
183.635835
  0
LINE
  8
1
  6
CONTINUOUS
 62
4
 10
246.117515
 20
176.221622
 11
252.117515
 21
182.221622
  0
LINE
  8
1
  6
CONTINUOUS
 62
4
 10
246.117515
 20
174.807408
 11
252.117515
 21
180.807408
  0
LINE
  8
1
  6
CONTINUOUS
 62
4
 10
246.117515
 20
173.393195
 11
252.117515
 21
179.393195
  0
LINE
  8
1
  6
CONTINUOUS
 62
4
 10
246.117515
 20
171.978981
 11
252.117515
 21
177.978981
  0
LINE
  8
1
  6
CONTINUOUS
 62
4
 10
246.117515
 20
170.564768
 11
252.117515
 21
176.564768
  0
LINE
  8
1
  6
CONTINUOUS
 62
4
 10
246.117515
 20
169.150554
 11
252.117515
 21
175.150554
  0
LINE
  8
1
  6
CONTINUOUS
 62
4
 10
246.117515
 20
167.73634
 11
252.117515
 21
173.73634
  0
LINE
  8
1
  6
CONTINUOUS
 62
4
 10
246.117515
 20
166.322127
 11
252.117515
 21
172.322127
  0
LINE
  8
1
  6
CONTINUOUS
 62
4
 10
246.117515
 20
164.907913
 11
252.117515
 21
170.907913
  0
LINE
  8
1
  6
CONTINUOUS
 62
4
 10
246.117515
 20
163.4937
 11
252.117515
 21
169.4937
  0
LINE
  8
1
  6
CONTINUOUS
 62
4
 10
246.117515
 20
162.079486
 11
252.117515
 21
168.079486
  0
LINE
  8
1
  6
CONTINUOUS
 62
4
 10
246.117515
 20
160.665273
 11
252.117515
 21
166.665273
  0
LINE
  8
1
  6
CONTINUOUS
 62
4
 10
246.117515
 20
159.251059
 11
252.117515
 21
165.251059
  0
LINE
  8
1
  6
CONTINUOUS
 62
4
 10
246.372349
 20
158.09168
 11
252.117515
 21
163.836846
  0
LINE
  8
1
  6
CONTINUOUS
 62
4
 10
247.786563
 20
158.09168
 11
252.117515
 21
162.422632
  0
LINE
  8
1
  6
CONTINUOUS
 62
4
 10
249.200776
 20
158.09168
 11
252.117515
 21
161.008418
  0
LINE
  8
1
  6
CONTINUOUS
 62
4
 10
250.61499
 20
158.09168
 11
252.117515
 21
159.594205
  0
LINE
  8
1
  6
CONTINUOUS
 62
4
 10
252.029203
 20
158.09168
 11
252.117515
 21
158.179991
  0
ENDBLK
  0
BLOCK
  8
1
  2
BLKF031
 70
    0
 10
0
 20
0
 30
0.0
  3
BLKF031
  1

  0
LINE
  8
1
  6
CONTINUOUS
 62
4
 10
264.117515
 20
203.09168
 11
270.117515
 21
197.09168
  0
LINE
  8
1
  6
CONTINUOUS
 62
4
 10
265.531729
 20
203.09168
 11
270.117515
 21
198.505893
  0
LINE
  8
1
  6
CONTINUOUS
 62
4
 10
266.945942
 20
203.09168
 11
270.117515
 21
199.920107
  0
LINE
  8
1
  6
CONTINUOUS
 62
4
 10
268.360156
 20
203.09168
 11
270.117515
 21
201.33432
  0
LINE
  8
1
  6
CONTINUOUS
 62
4
 10
269.774369
 20
203.09168
 11
270.117515
 21
202.748534
  0
LINE
  8
1
  6
CONTINUOUS
 62
4
 10
264.117515
 20
201.677466
 11
270.117515
 21
195.677466
  0
LINE
  8
1
  6
CONTINUOUS
 62
4
 10
264.117515
 20
200.263252
 11
270.117515
 21
194.263252
  0
LINE
  8
1
  6
CONTINUOUS
 62
4
 10
264.117515
 20
198.849039
 11
270.117515
 21
192.849039
  0
LINE
  8
1
  6
CONTINUOUS
 62
4
 10
264.117515
 20
197.434825
 11
270.117515
 21
191.434825
  0
LINE
  8
1
  6
CONTINUOUS
 62
4
 10
264.117515
 20
196.020612
 11
270.117515
 21
190.020612
  0
LINE
  8
1
  6
CONTINUOUS
 62
4
 10
264.117515
 20
194.606398
 11
270.117515
 21
188.606398
  0
LINE
  8
1
  6
CONTINUOUS
 62
4
 10
264.117515
 20
193.192185
 11
270.117515
 21
187.192185
  0
LINE
  8
1
  6
CONTINUOUS
 62
4
 10
264.117515
 20
191.777971
 11
270.117515
 21
185.777971
  0
LINE
  8
1
  6
CONTINUOUS
 62
4
 10
264.117515
 20
190.363757
 11
270.117515
 21
184.363757
  0
LINE
  8
1
  6
CONTINUOUS
 62
4
 10
264.117515
 20
188.949544
 11
270.117515
 21
182.949544
  0
LINE
  8
1
  6
CONTINUOUS
 62
4
 10
264.117515
 20
187.53533
 11
270.117515
 21
181.53533
  0
LINE
  8
1
  6
CONTINUOUS
 62
4
 10
264.117515
 20
186.121117
 11
270.117515
 21
180.121117
  0
LINE
  8
1
  6
CONTINUOUS
 62
4
 10
264.117515
 20
184.706903
 11
270.117515
 21
178.706903
  0
LINE
  8
1
  6
CONTINUOUS
 62
4
 10
264.117515
 20
183.29269
 11
270.117515
 21
177.29269
  0
LINE
  8
1
  6
CONTINUOUS
 62
4
 10
264.117515
 20
181.878476
 11
270.117515
 21
175.878476
  0
LINE
  8
1
  6
CONTINUOUS
 62
4
 10
264.117515
 20
180.464263
 11
270.117515
 21
174.464263
  0
LINE
  8
1
  6
CONTINUOUS
 62
4
 10
264.117515
 20
179.050049
 11
270.117515
 21
173.050049
  0
LINE
  8
1
  6
CONTINUOUS
 62
4
 10
264.117515
 20
177.635835
 11
270.117515
 21
171.635835
  0
LINE
  8
1
  6
CONTINUOUS
 62
4
 10
264.117515
 20
176.221622
 11
270.117515
 21
170.221622
  0
LINE
  8
1
  6
CONTINUOUS
 62
4
 10
264.117515
 20
174.807408
 11
270.117515
 21
168.807408
  0
LINE
  8
1
  6
CONTINUOUS
 62
4
 10
264.117515
 20
173.393195
 11
270.117515
 21
167.393195
  0
LINE
  8
1
  6
CONTINUOUS
 62
4
 10
264.117515
 20
171.978981
 11
270.117515
 21
165.978981
  0
LINE
  8
1
  6
CONTINUOUS
 62
4
 10
264.117515
 20
170.564768
 11
270.117515
 21
164.564768
  0
LINE
  8
1
  6
CONTINUOUS
 62
4
 10
264.117515
 20
169.150554
 11
270.117515
 21
163.150554
  0
LINE
  8
1
  6
CONTINUOUS
 62
4
 10
264.117515
 20
167.73634
 11
270.117515
 21
161.73634
  0
LINE
  8
1
  6
CONTINUOUS
 62
4
 10
264.117515
 20
166.322127
 11
270.117515
 21
160.322127
  0
LINE
  8
1
  6
CONTINUOUS
 62
4
 10
264.117515
 20
164.907913
 11
270.117515
 21
158.907913
  0
LINE
  8
1
  6
CONTINUOUS
 62
4
 10
264.117515
 20
163.4937
 11
269.519535
 21
158.09168
  0
LINE
  8
1
  6
CONTINUOUS
 62
4
 10
264.117515
 20
162.079486
 11
268.105322
 21
158.09168
  0
LINE
  8
1
  6
CONTINUOUS
 62
4
 10
264.117515
 20
160.665273
 11
266.691108
 21
158.09168
  0
LINE
  8
1
  6
CONTINUOUS
 62
4
 10
264.117515
 20
159.251059
 11
265.276895
 21
158.09168
  0
ENDBLK
  0
BLOCK
  8
1
  2
BLKF030
 70
    0
 10
0
 20
0
 30
0.0
  3
BLKF030
  1

  0
LINE
  8
1
  6
CONTINUOUS
 62
4
 10
264.117515
 20
201.677466
 11
265.531729
 21
203.09168
  0
LINE
  8
1
  6
CONTINUOUS
 62
4
 10
264.117515
 20
200.263252
 11
266.945942
 21
203.09168
  0
LINE
  8
1
  6
CONTINUOUS
 62
4
 10
264.117515
 20
198.849039
 11
268.360156
 21
203.09168
  0
LINE
  8
1
  6
CONTINUOUS
 62
4
 10
264.117515
 20
197.434825
 11
269.774369
 21
203.09168
  0
LINE
  8
1
  6
CONTINUOUS
 62
4
 10
264.117515
 20
196.020612
 11
270.117515
 21
202.020612
  0
LINE
  8
1
  6
CONTINUOUS
 62
4
 10
264.117515
 20
194.606398
 11
270.117515
 21
200.606398
  0
LINE
  8
1
  6
CONTINUOUS
 62
4
 10
264.117515
 20
193.192185
 11
270.117515
 21
199.192185
  0
LINE
  8
1
  6
CONTINUOUS
 62
4
 10
264.117515
 20
191.777971
 11
270.117515
 21
197.777971
  0
LINE
  8
1
  6
CONTINUOUS
 62
4
 10
264.117515
 20
190.363757
 11
270.117515
 21
196.363757
  0
LINE
  8
1
  6
CONTINUOUS
 62
4
 10
264.117515
 20
188.949544
 11
270.117515
 21
194.949544
  0
LINE
  8
1
  6
CONTINUOUS
 62
4
 10
264.117515
 20
187.53533
 11
270.117515
 21
193.53533
  0
LINE
  8
1
  6
CONTINUOUS
 62
4
 10
264.117515
 20
186.121117
 11
270.117515
 21
192.121117
  0
LINE
  8
1
  6
CONTINUOUS
 62
4
 10
264.117515
 20
184.706903
 11
270.117515
 21
190.706903
  0
LINE
  8
1
  6
CONTINUOUS
 62
4
 10
264.117515
 20
183.29269
 11
270.117515
 21
189.29269
  0
LINE
  8
1
  6
CONTINUOUS
 62
4
 10
264.117515
 20
181.878476
 11
270.117515
 21
187.878476
  0
LINE
  8
1
  6
CONTINUOUS
 62
4
 10
264.117515
 20
180.464263
 11
270.117515
 21
186.464263
  0
LINE
  8
1
  6
CONTINUOUS
 62
4
 10
264.117515
 20
179.050049
 11
270.117515
 21
185.050049
  0
LINE
  8
1
  6
CONTINUOUS
 62
4
 10
264.117515
 20
177.635835
 11
270.117515
 21
183.635835
  0
LINE
  8
1
  6
CONTINUOUS
 62
4
 10
264.117515
 20
176.221622
 11
270.117515
 21
182.221622
  0
LINE
  8
1
  6
CONTINUOUS
 62
4
 10
264.117515
 20
174.807408
 11
270.117515
 21
180.807408
  0
LINE
  8
1
  6
CONTINUOUS
 62
4
 10
264.117515
 20
173.393195
 11
270.117515
 21
179.393195
  0
LINE
  8
1
  6
CONTINUOUS
 62
4
 10
264.117515
 20
171.978981
 11
270.117515
 21
177.978981
  0
LINE
  8
1
  6
CONTINUOUS
 62
4
 10
264.117515
 20
170.564768
 11
270.117515
 21
176.564768
  0
LINE
  8
1
  6
CONTINUOUS
 62
4
 10
264.117515
 20
169.150554
 11
270.117515
 21
175.150554
  0
LINE
  8
1
  6
CONTINUOUS
 62
4
 10
264.117515
 20
167.73634
 11
270.117515
 21
173.73634
  0
LINE
  8
1
  6
CONTINUOUS
 62
4
 10
264.117515
 20
166.322127
 11
270.117515
 21
172.322127
  0
LINE
  8
1
  6
CONTINUOUS
 62
4
 10
264.117515
 20
164.907913
 11
270.117515
 21
170.907913
  0
LINE
  8
1
  6
CONTINUOUS
 62
4
 10
264.117515
 20
163.4937
 11
270.117515
 21
169.4937
  0
LINE
  8
1
  6
CONTINUOUS
 62
4
 10
264.117515
 20
162.079486
 11
270.117515
 21
168.079486
  0
LINE
  8
1
  6
CONTINUOUS
 62
4
 10
264.117515
 20
160.665273
 11
270.117515
 21
166.665273
  0
LINE
  8
1
  6
CONTINUOUS
 62
4
 10
264.117515
 20
159.251059
 11
270.117515
 21
165.251059
  0
LINE
  8
1
  6
CONTINUOUS
 62
4
 10
264.372349
 20
158.09168
 11
270.117515
 21
163.836846
  0
LINE
  8
1
  6
CONTINUOUS
 62
4
 10
265.786563
 20
158.09168
 11
270.117515
 21
162.422632
  0
LINE
  8
1
  6
CONTINUOUS
 62
4
 10
267.200776
 20
158.09168
 11
270.117515
 21
161.008418
  0
LINE
  8
1
  6
CONTINUOUS
 62
4
 10
268.61499
 20
158.09168
 11
270.117515
 21
159.594205
  0
LINE
  8
1
  6
CONTINUOUS
 62
4
 10
270.029203
 20
158.09168
 11
270.117515
 21
158.179991
  0
ENDBLK
  0
BLOCK
  8
1
  2
BLKF029
 70
    0
 10
0
 20
0
 30
0.0
  3
BLKF029
  1

  0
LINE
  8
1
  6
CONTINUOUS
 62
4
 10
282.117515
 20
203.09168
 11
288.117515
 21
197.09168
  0
LINE
  8
1
  6
CONTINUOUS
 62
4
 10
283.531729
 20
203.09168
 11
288.117515
 21
198.505893
  0
LINE
  8
1
  6
CONTINUOUS
 62
4
 10
284.945942
 20
203.09168
 11
288.117515
 21
199.920107
  0
LINE
  8
1
  6
CONTINUOUS
 62
4
 10
286.360156
 20
203.09168
 11
288.117515
 21
201.33432
  0
LINE
  8
1
  6
CONTINUOUS
 62
4
 10
287.774369
 20
203.09168
 11
288.117515
 21
202.748534
  0
LINE
  8
1
  6
CONTINUOUS
 62
4
 10
282.117515
 20
201.677466
 11
288.117515
 21
195.677466
  0
LINE
  8
1
  6
CONTINUOUS
 62
4
 10
282.117515
 20
200.263252
 11
288.117515
 21
194.263252
  0
LINE
  8
1
  6
CONTINUOUS
 62
4
 10
282.117515
 20
198.849039
 11
288.117515
 21
192.849039
  0
LINE
  8
1
  6
CONTINUOUS
 62
4
 10
282.117515
 20
197.434825
 11
288.117515
 21
191.434825
  0
LINE
  8
1
  6
CONTINUOUS
 62
4
 10
282.117515
 20
196.020612
 11
288.117515
 21
190.020612
  0
LINE
  8
1
  6
CONTINUOUS
 62
4
 10
282.117515
 20
194.606398
 11
288.117515
 21
188.606398
  0
LINE
  8
1
  6
CONTINUOUS
 62
4
 10
282.117515
 20
193.192185
 11
288.117515
 21
187.192185
  0
LINE
  8
1
  6
CONTINUOUS
 62
4
 10
282.117515
 20
191.777971
 11
288.117515
 21
185.777971
  0
LINE
  8
1
  6
CONTINUOUS
 62
4
 10
282.117515
 20
190.363757
 11
288.117515
 21
184.363757
  0
LINE
  8
1
  6
CONTINUOUS
 62
4
 10
282.117515
 20
188.949544
 11
288.117515
 21
182.949544
  0
LINE
  8
1
  6
CONTINUOUS
 62
4
 10
282.117515
 20
187.53533
 11
288.117515
 21
181.53533
  0
LINE
  8
1
  6
CONTINUOUS
 62
4
 10
282.117515
 20
186.121117
 11
288.117515
 21
180.121117
  0
LINE
  8
1
  6
CONTINUOUS
 62
4
 10
282.117515
 20
184.706903
 11
288.117515
 21
178.706903
  0
LINE
  8
1
  6
CONTINUOUS
 62
4
 10
282.117515
 20
183.29269
 11
288.117515
 21
177.29269
  0
LINE
  8
1
  6
CONTINUOUS
 62
4
 10
282.117515
 20
181.878476
 11
288.117515
 21
175.878476
  0
LINE
  8
1
  6
CONTINUOUS
 62
4
 10
282.117515
 20
180.464263
 11
288.117515
 21
174.464263
  0
LINE
  8
1
  6
CONTINUOUS
 62
4
 10
282.117515
 20
179.050049
 11
288.117515
 21
173.050049
  0
LINE
  8
1
  6
CONTINUOUS
 62
4
 10
282.117515
 20
177.635835
 11
288.117515
 21
171.635835
  0
LINE
  8
1
  6
CONTINUOUS
 62
4
 10
282.117515
 20
176.221622
 11
288.117515
 21
170.221622
  0
LINE
  8
1
  6
CONTINUOUS
 62
4
 10
282.117515
 20
174.807408
 11
288.117515
 21
168.807408
  0
LINE
  8
1
  6
CONTINUOUS
 62
4
 10
282.117515
 20
173.393195
 11
288.117515
 21
167.393195
  0
LINE
  8
1
  6
CONTINUOUS
 62
4
 10
282.117515
 20
171.978981
 11
288.117515
 21
165.978981
  0
LINE
  8
1
  6
CONTINUOUS
 62
4
 10
282.117515
 20
170.564768
 11
288.117515
 21
164.564768
  0
LINE
  8
1
  6
CONTINUOUS
 62
4
 10
282.117515
 20
169.150554
 11
288.117515
 21
163.150554
  0
LINE
  8
1
  6
CONTINUOUS
 62
4
 10
282.117515
 20
167.73634
 11
288.117515
 21
161.73634
  0
LINE
  8
1
  6
CONTINUOUS
 62
4
 10
282.117515
 20
166.322127
 11
288.117515
 21
160.322127
  0
LINE
  8
1
  6
CONTINUOUS
 62
4
 10
282.117515
 20
164.907913
 11
288.117515
 21
158.907913
  0
LINE
  8
1
  6
CONTINUOUS
 62
4
 10
282.117515
 20
163.4937
 11
287.519535
 21
158.09168
  0
LINE
  8
1
  6
CONTINUOUS
 62
4
 10
282.117515
 20
162.079486
 11
286.105322
 21
158.09168
  0
LINE
  8
1
  6
CONTINUOUS
 62
4
 10
282.117515
 20
160.665273
 11
284.691108
 21
158.09168
  0
LINE
  8
1
  6
CONTINUOUS
 62
4
 10
282.117515
 20
159.251059
 11
283.276895
 21
158.09168
  0
ENDBLK
  0
BLOCK
  8
1
  2
BLKF028
 70
    0
 10
0
 20
0
 30
0.0
  3
BLKF028
  1

  0
LINE
  8
1
  6
CONTINUOUS
 62
4
 10
282.117515
 20
201.677466
 11
283.531729
 21
203.09168
  0
LINE
  8
1
  6
CONTINUOUS
 62
4
 10
282.117515
 20
200.263252
 11
284.945942
 21
203.09168
  0
LINE
  8
1
  6
CONTINUOUS
 62
4
 10
282.117515
 20
198.849039
 11
286.360156
 21
203.09168
  0
LINE
  8
1
  6
CONTINUOUS
 62
4
 10
282.117515
 20
197.434825
 11
287.774369
 21
203.09168
  0
LINE
  8
1
  6
CONTINUOUS
 62
4
 10
282.117515
 20
196.020612
 11
288.117515
 21
202.020612
  0
LINE
  8
1
  6
CONTINUOUS
 62
4
 10
282.117515
 20
194.606398
 11
288.117515
 21
200.606398
  0
LINE
  8
1
  6
CONTINUOUS
 62
4
 10
282.117515
 20
193.192185
 11
288.117515
 21
199.192185
  0
LINE
  8
1
  6
CONTINUOUS
 62
4
 10
282.117515
 20
191.777971
 11
288.117515
 21
197.777971
  0
LINE
  8
1
  6
CONTINUOUS
 62
4
 10
282.117515
 20
190.363757
 11
288.117515
 21
196.363757
  0
LINE
  8
1
  6
CONTINUOUS
 62
4
 10
282.117515
 20
188.949544
 11
288.117515
 21
194.949544
  0
LINE
  8
1
  6
CONTINUOUS
 62
4
 10
282.117515
 20
187.53533
 11
288.117515
 21
193.53533
  0
LINE
  8
1
  6
CONTINUOUS
 62
4
 10
282.117515
 20
186.121117
 11
288.117515
 21
192.121117
  0
LINE
  8
1
  6
CONTINUOUS
 62
4
 10
282.117515
 20
184.706903
 11
288.117515
 21
190.706903
  0
LINE
  8
1
  6
CONTINUOUS
 62
4
 10
282.117515
 20
183.29269
 11
288.117515
 21
189.29269
  0
LINE
  8
1
  6
CONTINUOUS
 62
4
 10
282.117515
 20
181.878476
 11
288.117515
 21
187.878476
  0
LINE
  8
1
  6
CONTINUOUS
 62
4
 10
282.117515
 20
180.464263
 11
288.117515
 21
186.464263
  0
LINE
  8
1
  6
CONTINUOUS
 62
4
 10
282.117515
 20
179.050049
 11
288.117515
 21
185.050049
  0
LINE
  8
1
  6
CONTINUOUS
 62
4
 10
282.117515
 20
177.635835
 11
288.117515
 21
183.635835
  0
LINE
  8
1
  6
CONTINUOUS
 62
4
 10
282.117515
 20
176.221622
 11
288.117515
 21
182.221622
  0
LINE
  8
1
  6
CONTINUOUS
 62
4
 10
282.117515
 20
174.807408
 11
288.117515
 21
180.807408
  0
LINE
  8
1
  6
CONTINUOUS
 62
4
 10
282.117515
 20
173.393195
 11
288.117515
 21
179.393195
  0
LINE
  8
1
  6
CONTINUOUS
 62
4
 10
282.117515
 20
171.978981
 11
288.117515
 21
177.978981
  0
LINE
  8
1
  6
CONTINUOUS
 62
4
 10
282.117515
 20
170.564768
 11
288.117515
 21
176.564768
  0
LINE
  8
1
  6
CONTINUOUS
 62
4
 10
282.117515
 20
169.150554
 11
288.117515
 21
175.150554
  0
LINE
  8
1
  6
CONTINUOUS
 62
4
 10
282.117515
 20
167.73634
 11
288.117515
 21
173.73634
  0
LINE
  8
1
  6
CONTINUOUS
 62
4
 10
282.117515
 20
166.322127
 11
288.117515
 21
172.322127
  0
LINE
  8
1
  6
CONTINUOUS
 62
4
 10
282.117515
 20
164.907913
 11
288.117515
 21
170.907913
  0
LINE
  8
1
  6
CONTINUOUS
 62
4
 10
282.117515
 20
163.4937
 11
288.117515
 21
169.4937
  0
LINE
  8
1
  6
CONTINUOUS
 62
4
 10
282.117515
 20
162.079486
 11
288.117515
 21
168.079486
  0
LINE
  8
1
  6
CONTINUOUS
 62
4
 10
282.117515
 20
160.665273
 11
288.117515
 21
166.665273
  0
LINE
  8
1
  6
CONTINUOUS
 62
4
 10
282.117515
 20
159.251059
 11
288.117515
 21
165.251059
  0
LINE
  8
1
  6
CONTINUOUS
 62
4
 10
282.372349
 20
158.09168
 11
288.117515
 21
163.836846
  0
LINE
  8
1
  6
CONTINUOUS
 62
4
 10
283.786563
 20
158.09168
 11
288.117515
 21
162.422632
  0
LINE
  8
1
  6
CONTINUOUS
 62
4
 10
285.200776
 20
158.09168
 11
288.117515
 21
161.008418
  0
LINE
  8
1
  6
CONTINUOUS
 62
4
 10
286.61499
 20
158.09168
 11
288.117515
 21
159.594205
  0
LINE
  8
1
  6
CONTINUOUS
 62
4
 10
288.029203
 20
158.09168
 11
288.117515
 21
158.179991
  0
ENDBLK
  0
BLOCK
  8
1
  2
BLKF027
 70
    0
 10
0
 20
0
 30
0.0
  3
BLKF027
  1

  0
TEXT
  8
1
 62
4
  6
BYLAYER
 62
4
 10
47.1450735569
 20
93.664443969727
 40
3.200000047684
  1
8
  7
Font_0
  0
LINE
  8
1
  6
CONTINUOUS
 62
4
 10
44.105072
 20
93.164432
 11
52.105072
 21
93.164432
  0
LINE
  8
1
  6
CONTINUOUS
 62
4
 10
44.105072
 20
93.164432
 11
47.002849
 21
93.940889
  0
LINE
  8
1
  6
CONTINUOUS
 62
4
 10
44.105072
 20
93.164432
 11
47.002849
 21
92.387975
  0
LINE
  8
1
  6
CONTINUOUS
 62
4
 10
52.105072
 20
93.164432
 11
49.207294
 21
93.940889
  0
LINE
  8
1
  6
CONTINUOUS
 62
4
 10
52.105072
 20
93.164432
 11
49.207294
 21
92.387975
  0
LINE
  8
1
  6
CONTINUOUS
 62
4
 10
52.105072
 20
77.632641
 11
52.105072
 21
94.164432
  0
ENDBLK
  0
BLOCK
  8
1
  2
BLKF026
 70
    0
 10
0
 20
0
 30
0.0
  3
BLKF026
  1

  0
TEXT
  8
1
 62
4
  6
BYLAYER
 62
4
 10
111.905068993568
 20
99.664443969727
 40
3.200000047684
  1
142
  7
Font_0
  0
LINE
  8
1
  6
CONTINUOUS
 62
4
 10
44.105072
 20
99.164432
 11
186.105072
 21
99.164432
  0
LINE
  8
1
  6
CONTINUOUS
 62
4
 10
44.105072
 20
99.164432
 11
47.002849
 21
99.940889
  0
LINE
  8
1
  6
CONTINUOUS
 62
4
 10
44.105072
 20
99.164432
 11
47.002849
 21
98.387975
  0
LINE
  8
1
  6
CONTINUOUS
 62
4
 10
186.105072
 20
99.164432
 11
183.207294
 21
99.940889
  0
LINE
  8
1
  6
CONTINUOUS
 62
4
 10
186.105072
 20
99.164432
 11
183.207294
 21
98.387975
  0
LINE
  8
1
  6
CONTINUOUS
 62
4
 10
44.105072
 20
78.366374
 11
44.105072
 21
100.164432
  0
LINE
  8
1
  6
CONTINUOUS
 62
4
 10
186.105072
 20
83.188197
 11
186.105072
 21
100.164432
  0
ENDBLK
  0
BLOCK
  8
1
  2
BLKF025
 70
    0
 10
0
 20
0
 30
0.0
  3
BLKF025
  1

  0
LINE
  8
1
  6
CONTINUOUS
 62
4
 10
137.105072
 20
116.882876
 11
143.105072
 21
110.882876
  0
LINE
  8
1
  6
CONTINUOUS
 62
4
 10
138.519285
 20
116.882876
 11
143.105072
 21
112.297089
  0
LINE
  8
1
  6
CONTINUOUS
 62
4
 10
139.933499
 20
116.882876
 11
143.105072
 21
113.711303
  0
LINE
  8
1
  6
CONTINUOUS
 62
4
 10
141.347712
 20
116.882876
 11
143.105072
 21
115.125516
  0
LINE
  8
1
  6
CONTINUOUS
 62
4
 10
142.761926
 20
116.882876
 11
143.105072
 21
116.53973
  0
LINE
  8
1
  6
CONTINUOUS
 62
4
 10
137.105072
 20
115.468662
 11
143.105072
 21
109.468662
  0
LINE
  8
1
  6
CONTINUOUS
 62
4
 10
137.105072
 20
114.054448
 11
143.105072
 21
108.054448
  0
LINE
  8
1
  6
CONTINUOUS
 62
4
 10
137.105072
 20
112.640235
 11
143.105072
 21
106.640235
  0
LINE
  8
1
  6
CONTINUOUS
 62
4
 10
137.105072
 20
111.226021
 11
143.105072
 21
105.226021
  0
LINE
  8
1
  6
CONTINUOUS
 62
4
 10
137.105072
 20
109.811808
 11
141.784004
 21
105.132876
  0
LINE
  8
1
  6
CONTINUOUS
 62
4
 10
137.105072
 20
108.397594
 11
140.36979
 21
105.132876
  0
LINE
  8
1
  6
CONTINUOUS
 62
4
 10
137.105072
 20
106.983381
 11
138.955577
 21
105.132876
  0
LINE
  8
1
  6
CONTINUOUS
 62
4
 10
137.105072
 20
105.569167
 11
137.541363
 21
105.132876
  0
ENDBLK
  0
BLOCK
  8
1
  2
BLKF024
 70
    0
 10
0
 20
0
 30
0.0
  3
BLKF024
  1

  0
LINE
  8
1
  6
CONTINUOUS
 62
4
 10
137.105072
 20
115.468662
 11
138.519285
 21
116.882876
  0
LINE
  8
1
  6
CONTINUOUS
 62
4
 10
137.105072
 20
114.054448
 11
139.933499
 21
116.882876
  0
LINE
  8
1
  6
CONTINUOUS
 62
4
 10
137.105072
 20
112.640235
 11
141.347712
 21
116.882876
  0
LINE
  8
1
  6
CONTINUOUS
 62
4
 10
137.105072
 20
111.226021
 11
142.761926
 21
116.882876
  0
LINE
  8
1
  6
CONTINUOUS
 62
4
 10
137.105072
 20
109.811808
 11
143.105072
 21
115.811808
  0
LINE
  8
1
  6
CONTINUOUS
 62
4
 10
137.105072
 20
108.397594
 11
143.105072
 21
114.397594
  0
LINE
  8
1
  6
CONTINUOUS
 62
4
 10
137.105072
 20
106.983381
 11
143.105072
 21
112.983381
  0
LINE
  8
1
  6
CONTINUOUS
 62
4
 10
137.105072
 20
105.569167
 11
143.105072
 21
111.569167
  0
LINE
  8
1
  6
CONTINUOUS
 62
4
 10
138.082994
 20
105.132876
 11
143.105072
 21
110.154953
  0
LINE
  8
1
  6
CONTINUOUS
 62
4
 10
139.497207
 20
105.132876
 11
143.105072
 21
108.74074
  0
LINE
  8
1
  6
CONTINUOUS
 62
4
 10
140.911421
 20
105.132876
 11
143.105072
 21
107.326526
  0
LINE
  8
1
  6
CONTINUOUS
 62
4
 10
142.325635
 20
105.132876
 11
143.105072
 21
105.912313
  0
ENDBLK
  0
BLOCK
  8
1
  2
BLKF023
 70
    0
 10
0
 20
0
 30
0.0
  3
BLKF023
  1

  0
LINE
  8
1
  6
CONTINUOUS
 62
4
 10
119.105072
 20
116.882876
 11
125.105072
 21
110.882876
  0
LINE
  8
1
  6
CONTINUOUS
 62
4
 10
120.519285
 20
116.882876
 11
125.105072
 21
112.297089
  0
LINE
  8
1
  6
CONTINUOUS
 62
4
 10
121.933499
 20
116.882876
 11
125.105072
 21
113.711303
  0
LINE
  8
1
  6
CONTINUOUS
 62
4
 10
123.347712
 20
116.882876
 11
125.105072
 21
115.125516
  0
LINE
  8
1
  6
CONTINUOUS
 62
4
 10
124.761926
 20
116.882876
 11
125.105072
 21
116.53973
  0
LINE
  8
1
  6
CONTINUOUS
 62
4
 10
119.105072
 20
115.468662
 11
125.105072
 21
109.468662
  0
LINE
  8
1
  6
CONTINUOUS
 62
4
 10
119.105072
 20
114.054448
 11
125.105072
 21
108.054448
  0
LINE
  8
1
  6
CONTINUOUS
 62
4
 10
119.105072
 20
112.640235
 11
125.105072
 21
106.640235
  0
LINE
  8
1
  6
CONTINUOUS
 62
4
 10
119.105072
 20
111.226021
 11
125.105072
 21
105.226021
  0
LINE
  8
1
  6
CONTINUOUS
 62
4
 10
119.105072
 20
109.811808
 11
123.784004
 21
105.132876
  0
LINE
  8
1
  6
CONTINUOUS
 62
4
 10
119.105072
 20
108.397594
 11
122.36979
 21
105.132876
  0
LINE
  8
1
  6
CONTINUOUS
 62
4
 10
119.105072
 20
106.983381
 11
120.955577
 21
105.132876
  0
LINE
  8
1
  6
CONTINUOUS
 62
4
 10
119.105072
 20
105.569167
 11
119.541363
 21
105.132876
  0
ENDBLK
  0
BLOCK
  8
1
  2
BLKF022
 70
    0
 10
0
 20
0
 30
0.0
  3
BLKF022
  1

  0
LINE
  8
1
  6
CONTINUOUS
 62
4
 10
119.105072
 20
115.468662
 11
120.519285
 21
116.882876
  0
LINE
  8
1
  6
CONTINUOUS
 62
4
 10
119.105072
 20
114.054448
 11
121.933499
 21
116.882876
  0
LINE
  8
1
  6
CONTINUOUS
 62
4
 10
119.105072
 20
112.640235
 11
123.347712
 21
116.882876
  0
LINE
  8
1
  6
CONTINUOUS
 62
4
 10
119.105072
 20
111.226021
 11
124.761926
 21
116.882876
  0
LINE
  8
1
  6
CONTINUOUS
 62
4
 10
119.105072
 20
109.811808
 11
125.105072
 21
115.811808
  0
LINE
  8
1
  6
CONTINUOUS
 62
4
 10
119.105072
 20
108.397594
 11
125.105072
 21
114.397594
  0
LINE
  8
1
  6
CONTINUOUS
 62
4
 10
119.105072
 20
106.983381
 11
125.105072
 21
112.983381
  0
LINE
  8
1
  6
CONTINUOUS
 62
4
 10
119.105072
 20
105.569167
 11
125.105072
 21
111.569167
  0
LINE
  8
1
  6
CONTINUOUS
 62
4
 10
120.082994
 20
105.132876
 11
125.105072
 21
110.154953
  0
LINE
  8
1
  6
CONTINUOUS
 62
4
 10
121.497207
 20
105.132876
 11
125.105072
 21
108.74074
  0
LINE
  8
1
  6
CONTINUOUS
 62
4
 10
122.911421
 20
105.132876
 11
125.105072
 21
107.326526
  0
LINE
  8
1
  6
CONTINUOUS
 62
4
 10
124.325635
 20
105.132876
 11
125.105072
 21
105.912313
  0
ENDBLK
  0
BLOCK
  8
1
  2
BLKF021
 70
    0
 10
0
 20
0
 30
0.0
  3
BLKF021
  1

  0
LINE
  8
1
  6
CONTINUOUS
 62
4
 10
101.105072
 20
116.882876
 11
107.105072
 21
110.882876
  0
LINE
  8
1
  6
CONTINUOUS
 62
4
 10
102.519285
 20
116.882876
 11
107.105072
 21
112.297089
  0
LINE
  8
1
  6
CONTINUOUS
 62
4
 10
103.933499
 20
116.882876
 11
107.105072
 21
113.711303
  0
LINE
  8
1
  6
CONTINUOUS
 62
4
 10
105.347712
 20
116.882876
 11
107.105072
 21
115.125516
  0
LINE
  8
1
  6
CONTINUOUS
 62
4
 10
106.761926
 20
116.882876
 11
107.105072
 21
116.53973
  0
LINE
  8
1
  6
CONTINUOUS
 62
4
 10
101.105072
 20
115.468662
 11
107.105072
 21
109.468662
  0
LINE
  8
1
  6
CONTINUOUS
 62
4
 10
101.105072
 20
114.054448
 11
107.105072
 21
108.054448
  0
LINE
  8
1
  6
CONTINUOUS
 62
4
 10
101.105072
 20
112.640235
 11
107.105072
 21
106.640235
  0
LINE
  8
1
  6
CONTINUOUS
 62
4
 10
101.105072
 20
111.226021
 11
107.105072
 21
105.226021
  0
LINE
  8
1
  6
CONTINUOUS
 62
4
 10
101.105072
 20
109.811808
 11
105.784004
 21
105.132876
  0
LINE
  8
1
  6
CONTINUOUS
 62
4
 10
101.105072
 20
108.397594
 11
104.36979
 21
105.132876
  0
LINE
  8
1
  6
CONTINUOUS
 62
4
 10
101.105072
 20
106.983381
 11
102.955577
 21
105.132876
  0
LINE
  8
1
  6
CONTINUOUS
 62
4
 10
101.105072
 20
105.569167
 11
101.541363
 21
105.132876
  0
ENDBLK
  0
BLOCK
  8
1
  2
BLKF020
 70
    0
 10
0
 20
0
 30
0.0
  3
BLKF020
  1

  0
LINE
  8
1
  6
CONTINUOUS
 62
4
 10
101.105072
 20
115.468662
 11
102.519285
 21
116.882876
  0
LINE
  8
1
  6
CONTINUOUS
 62
4
 10
101.105072
 20
114.054448
 11
103.933499
 21
116.882876
  0
LINE
  8
1
  6
CONTINUOUS
 62
4
 10
101.105072
 20
112.640235
 11
105.347712
 21
116.882876
  0
LINE
  8
1
  6
CONTINUOUS
 62
4
 10
101.105072
 20
111.226021
 11
106.761926
 21
116.882876
  0
LINE
  8
1
  6
CONTINUOUS
 62
4
 10
101.105072
 20
109.811808
 11
107.105072
 21
115.811808
  0
LINE
  8
1
  6
CONTINUOUS
 62
4
 10
101.105072
 20
108.397594
 11
107.105072
 21
114.397594
  0
LINE
  8
1
  6
CONTINUOUS
 62
4
 10
101.105072
 20
106.983381
 11
107.105072
 21
112.983381
  0
LINE
  8
1
  6
CONTINUOUS
 62
4
 10
101.105072
 20
105.569167
 11
107.105072
 21
111.569167
  0
LINE
  8
1
  6
CONTINUOUS
 62
4
 10
102.082994
 20
105.132876
 11
107.105072
 21
110.154953
  0
LINE
  8
1
  6
CONTINUOUS
 62
4
 10
103.497207
 20
105.132876
 11
107.105072
 21
108.74074
  0
LINE
  8
1
  6
CONTINUOUS
 62
4
 10
104.911421
 20
105.132876
 11
107.105072
 21
107.326526
  0
LINE
  8
1
  6
CONTINUOUS
 62
4
 10
106.325635
 20
105.132876
 11
107.105072
 21
105.912313
  0
ENDBLK
  0
BLOCK
  8
1
  2
BLKF019
 70
    0
 10
0
 20
0
 30
0.0
  3
BLKF019
  1

  0
LINE
  8
1
  6
CONTINUOUS
 62
4
 10
101.105072
 20
141.132876
 11
107.105072
 21
135.132876
  0
LINE
  8
1
  6
CONTINUOUS
 62
4
 10
102.519285
 20
141.132876
 11
107.105072
 21
136.547089
  0
LINE
  8
1
  6
CONTINUOUS
 62
4
 10
103.933499
 20
141.132876
 11
107.105072
 21
137.961303
  0
LINE
  8
1
  6
CONTINUOUS
 62
4
 10
105.347712
 20
141.132876
 11
107.105072
 21
139.375516
  0
LINE
  8
1
  6
CONTINUOUS
 62
4
 10
106.761926
 20
141.132876
 11
107.105072
 21
140.78973
  0
LINE
  8
1
  6
CONTINUOUS
 62
4
 10
101.105072
 20
139.718662
 11
107.105072
 21
133.718662
  0
LINE
  8
1
  6
CONTINUOUS
 62
4
 10
101.105072
 20
138.304448
 11
107.105072
 21
132.304448
  0
LINE
  8
1
  6
CONTINUOUS
 62
4
 10
101.105072
 20
136.890235
 11
107.105072
 21
130.890235
  0
LINE
  8
1
  6
CONTINUOUS
 62
4
 10
101.105072
 20
135.476021
 11
107.105072
 21
129.476021
  0
LINE
  8
1
  6
CONTINUOUS
 62
4
 10
101.105072
 20
134.061808
 11
105.784004
 21
129.382876
  0
LINE
  8
1
  6
CONTINUOUS
 62
4
 10
101.105072
 20
132.647594
 11
104.36979
 21
129.382876
  0
LINE
  8
1
  6
CONTINUOUS
 62
4
 10
101.105072
 20
131.233381
 11
102.955577
 21
129.382876
  0
LINE
  8
1
  6
CONTINUOUS
 62
4
 10
101.105072
 20
129.819167
 11
101.541363
 21
129.382876
  0
ENDBLK
  0
BLOCK
  8
1
  2
BLKF018
 70
    0
 10
0
 20
0
 30
0.0
  3
BLKF018
  1

  0
LINE
  8
1
  6
CONTINUOUS
 62
4
 10
101.105072
 20
139.718662
 11
102.519285
 21
141.132876
  0
LINE
  8
1
  6
CONTINUOUS
 62
4
 10
101.105072
 20
138.304448
 11
103.933499
 21
141.132876
  0
LINE
  8
1
  6
CONTINUOUS
 62
4
 10
101.105072
 20
136.890235
 11
105.347712
 21
141.132876
  0
LINE
  8
1
  6
CONTINUOUS
 62
4
 10
101.105072
 20
135.476021
 11
106.761926
 21
141.132876
  0
LINE
  8
1
  6
CONTINUOUS
 62
4
 10
101.105072
 20
134.061808
 11
107.105072
 21
140.061808
  0
LINE
  8
1
  6
CONTINUOUS
 62
4
 10
101.105072
 20
132.647594
 11
107.105072
 21
138.647594
  0
LINE
  8
1
  6
CONTINUOUS
 62
4
 10
101.105072
 20
131.233381
 11
107.105072
 21
137.233381
  0
LINE
  8
1
  6
CONTINUOUS
 62
4
 10
101.105072
 20
129.819167
 11
107.105072
 21
135.819167
  0
LINE
  8
1
  6
CONTINUOUS
 62
4
 10
102.082994
 20
129.382876
 11
107.105072
 21
134.404953
  0
LINE
  8
1
  6
CONTINUOUS
 62
4
 10
103.497207
 20
129.382876
 11
107.105072
 21
132.99074
  0
LINE
  8
1
  6
CONTINUOUS
 62
4
 10
104.911421
 20
129.382876
 11
107.105072
 21
131.576526
  0
LINE
  8
1
  6
CONTINUOUS
 62
4
 10
106.325635
 20
129.382876
 11
107.105072
 21
130.162313
  0
ENDBLK
  0
BLOCK
  8
1
  2
BLKF017
 70
    0
 10
0
 20
0
 30
0.0
  3
BLKF017
  1

  0
LINE
  8
1
  6
CONTINUOUS
 62
4
 10
119.105072
 20
141.132876
 11
125.105072
 21
135.132876
  0
LINE
  8
1
  6
CONTINUOUS
 62
4
 10
120.519285
 20
141.132876
 11
125.105072
 21
136.547089
  0
LINE
  8
1
  6
CONTINUOUS
 62
4
 10
121.933499
 20
141.132876
 11
125.105072
 21
137.961303
  0
LINE
  8
1
  6
CONTINUOUS
 62
4
 10
123.347712
 20
141.132876
 11
125.105072
 21
139.375516
  0
LINE
  8
1
  6
CONTINUOUS
 62
4
 10
124.761926
 20
141.132876
 11
125.105072
 21
140.78973
  0
LINE
  8
1
  6
CONTINUOUS
 62
4
 10
119.105072
 20
139.718662
 11
125.105072
 21
133.718662
  0
LINE
  8
1
  6
CONTINUOUS
 62
4
 10
119.105072
 20
138.304448
 11
125.105072
 21
132.304448
  0
LINE
  8
1
  6
CONTINUOUS
 62
4
 10
119.105072
 20
136.890235
 11
125.105072
 21
130.890235
  0
LINE
  8
1
  6
CONTINUOUS
 62
4
 10
119.105072
 20
135.476021
 11
125.105072
 21
129.476021
  0
LINE
  8
1
  6
CONTINUOUS
 62
4
 10
119.105072
 20
134.061808
 11
123.784004
 21
129.382876
  0
LINE
  8
1
  6
CONTINUOUS
 62
4
 10
119.105072
 20
132.647594
 11
122.36979
 21
129.382876
  0
LINE
  8
1
  6
CONTINUOUS
 62
4
 10
119.105072
 20
131.233381
 11
120.955577
 21
129.382876
  0
LINE
  8
1
  6
CONTINUOUS
 62
4
 10
119.105072
 20
129.819167
 11
119.541363
 21
129.382876
  0
ENDBLK
  0
BLOCK
  8
1
  2
BLKF016
 70
    0
 10
0
 20
0
 30
0.0
  3
BLKF016
  1

  0
LINE
  8
1
  6
CONTINUOUS
 62
4
 10
119.105072
 20
139.718662
 11
120.519285
 21
141.132876
  0
LINE
  8
1
  6
CONTINUOUS
 62
4
 10
119.105072
 20
138.304448
 11
121.933499
 21
141.132876
  0
LINE
  8
1
  6
CONTINUOUS
 62
4
 10
119.105072
 20
136.890235
 11
123.347712
 21
141.132876
  0
LINE
  8
1
  6
CONTINUOUS
 62
4
 10
119.105072
 20
135.476021
 11
124.761926
 21
141.132876
  0
LINE
  8
1
  6
CONTINUOUS
 62
4
 10
119.105072
 20
134.061808
 11
125.105072
 21
140.061808
  0
LINE
  8
1
  6
CONTINUOUS
 62
4
 10
119.105072
 20
132.647594
 11
125.105072
 21
138.647594
  0
LINE
  8
1
  6
CONTINUOUS
 62
4
 10
119.105072
 20
131.233381
 11
125.105072
 21
137.233381
  0
LINE
  8
1
  6
CONTINUOUS
 62
4
 10
119.105072
 20
129.819167
 11
125.105072
 21
135.819167
  0
LINE
  8
1
  6
CONTINUOUS
 62
4
 10
120.082994
 20
129.382876
 11
125.105072
 21
134.404953
  0
LINE
  8
1
  6
CONTINUOUS
 62
4
 10
121.497207
 20
129.382876
 11
125.105072
 21
132.99074
  0
LINE
  8
1
  6
CONTINUOUS
 62
4
 10
122.911421
 20
129.382876
 11
125.105072
 21
131.576526
  0
LINE
  8
1
  6
CONTINUOUS
 62
4
 10
124.325635
 20
129.382876
 11
125.105072
 21
130.162313
  0
ENDBLK
  0
BLOCK
  8
1
  2
BLKF015
 70
    0
 10
0
 20
0
 30
0.0
  3
BLKF015
  1

  0
LINE
  8
1
  6
CONTINUOUS
 62
4
 10
137.105072
 20
141.132876
 11
143.105072
 21
135.132876
  0
LINE
  8
1
  6
CONTINUOUS
 62
4
 10
138.519285
 20
141.132876
 11
143.105072
 21
136.547089
  0
LINE
  8
1
  6
CONTINUOUS
 62
4
 10
139.933499
 20
141.132876
 11
143.105072
 21
137.961303
  0
LINE
  8
1
  6
CONTINUOUS
 62
4
 10
141.347712
 20
141.132876
 11
143.105072
 21
139.375516
  0
LINE
  8
1
  6
CONTINUOUS
 62
4
 10
142.761926
 20
141.132876
 11
143.105072
 21
140.78973
  0
LINE
  8
1
  6
CONTINUOUS
 62
4
 10
137.105072
 20
139.718662
 11
143.105072
 21
133.718662
  0
LINE
  8
1
  6
CONTINUOUS
 62
4
 10
137.105072
 20
138.304448
 11
143.105072
 21
132.304448
  0
LINE
  8
1
  6
CONTINUOUS
 62
4
 10
137.105072
 20
136.890235
 11
143.105072
 21
130.890235
  0
LINE
  8
1
  6
CONTINUOUS
 62
4
 10
137.105072
 20
135.476021
 11
143.105072
 21
129.476021
  0
LINE
  8
1
  6
CONTINUOUS
 62
4
 10
137.105072
 20
134.061808
 11
141.784004
 21
129.382876
  0
LINE
  8
1
  6
CONTINUOUS
 62
4
 10
137.105072
 20
132.647594
 11
140.36979
 21
129.382876
  0
LINE
  8
1
  6
CONTINUOUS
 62
4
 10
137.105072
 20
131.233381
 11
138.955577
 21
129.382876
  0
LINE
  8
1
  6
CONTINUOUS
 62
4
 10
137.105072
 20
129.819167
 11
137.541363
 21
129.382876
  0
ENDBLK
  0
BLOCK
  8
1
  2
BLKF014
 70
    0
 10
0
 20
0
 30
0.0
  3
BLKF014
  1

  0
LINE
  8
1
  6
CONTINUOUS
 62
4
 10
137.105072
 20
139.718662
 11
138.519285
 21
141.132876
  0
LINE
  8
1
  6
CONTINUOUS
 62
4
 10
137.105072
 20
138.304448
 11
139.933499
 21
141.132876
  0
LINE
  8
1
  6
CONTINUOUS
 62
4
 10
137.105072
 20
136.890235
 11
141.347712
 21
141.132876
  0
LINE
  8
1
  6
CONTINUOUS
 62
4
 10
137.105072
 20
135.476021
 11
142.761926
 21
141.132876
  0
LINE
  8
1
  6
CONTINUOUS
 62
4
 10
137.105072
 20
134.061808
 11
143.105072
 21
140.061808
  0
LINE
  8
1
  6
CONTINUOUS
 62
4
 10
137.105072
 20
132.647594
 11
143.105072
 21
138.647594
  0
LINE
  8
1
  6
CONTINUOUS
 62
4
 10
137.105072
 20
131.233381
 11
143.105072
 21
137.233381
  0
LINE
  8
1
  6
CONTINUOUS
 62
4
 10
137.105072
 20
129.819167
 11
143.105072
 21
135.819167
  0
LINE
  8
1
  6
CONTINUOUS
 62
4
 10
138.082994
 20
129.382876
 11
143.105072
 21
134.404953
  0
LINE
  8
1
  6
CONTINUOUS
 62
4
 10
139.497207
 20
129.382876
 11
143.105072
 21
132.99074
  0
LINE
  8
1
  6
CONTINUOUS
 62
4
 10
140.911421
 20
129.382876
 11
143.105072
 21
131.576526
  0
LINE
  8
1
  6
CONTINUOUS
 62
4
 10
142.325635
 20
129.382876
 11
143.105072
 21
130.162313
  0
ENDBLK
  0
BLOCK
  8
1
  2
BLKF013
 70
    0
 10
0
 20
0
 30
0.0
  3
BLKF013
  1

  0
TEXT
  8
1
 62
4
  6
BYLAYER
 62
4
 10
28.045719146729
 20
67.488214373589
 40
3.200000047684
 41
1.000000149012
  1
%%c36
  7
Font_0
 50
90
  0
LINE
  8
1
  6
CONTINUOUS
 62
4
 10
28.54572
 20
52.688197
 11
28.54572
 21
88.688197
  0
LINE
  8
1
  6
CONTINUOUS
 62
4
 10
28.54572
 20
52.688197
 11
27.769263
 21
55.585974
  0
LINE
  8
1
  6
CONTINUOUS
 62
4
 10
28.54572
 20
52.688197
 11
29.322177
 21
55.585974
  0
LINE
  8
1
  6
CONTINUOUS
 62
4
 10
28.54572
 20
88.688197
 11
27.769263
 21
85.790419
  0
LINE
  8
1
  6
CONTINUOUS
 62
4
 10
28.54572
 20
88.688197
 11
29.322177
 21
85.790419
  0
LINE
  8
1
  6
CONTINUOUS
 62
4
 10
72.105072
 20
52.688197
 11
27.54572
 21
52.688197
  0
LINE
  8
1
  6
CONTINUOUS
 62
4
 10
72.105072
 20
88.688197
 11
27.54572
 21
88.688197
  0
ENDBLK
  0
BLOCK
  8
1
  2
BLKF012
 70
    0
 10
0
 20
0
 30
0.0
  3
BLKF012
  1

  0
TEXT
  8
1
 62
4
  6
BYLAYER
 62
4
 10
34.045719146729
 20
121.532876849175
 40
3.200000047684
 41
1.000000149012
  1
12
  7
Font_0
 50
90
  0
LINE
  8
1
  6
CONTINUOUS
 62
4
 10
34.54572
 20
117.132876
 11
34.54572
 21
129.132876
  0
LINE
  8
1
  6
CONTINUOUS
 62
4
 10
34.54572
 20
117.132876
 11
33.769263
 21
120.030653
  0
LINE
  8
1
  6
CONTINUOUS
 62
4
 10
34.54572
 20
117.132876
 11
35.322177
 21
120.030653
  0
LINE
  8
1
  6
CONTINUOUS
 62
4
 10
34.54572
 20
129.132876
 11
33.769263
 21
126.235098
  0
LINE
  8
1
  6
CONTINUOUS
 62
4
 10
34.54572
 20
129.132876
 11
35.322177
 21
126.235098
  0
LINE
  8
1
  6
CONTINUOUS
 62
4
 10
43.105072
 20
117.132876
 11
33.54572
 21
117.132876
  0
LINE
  8
1
  6
CONTINUOUS
 62
4
 10
43.105072
 20
129.132876
 11
33.54572
 21
129.132876
  0
ENDBLK
  0
BLOCK
  8
1
  2
BLKF011
 70
    0
 10
0
 20
0
 30
0.0
  3
BLKF011
  1

  0
TEXT
  8
1
 62
4
  6
BYLAYER
 62
4
 10
28.045719146729
 20
121.532876849175
 40
3.200000047684
 41
1.000000149012
  1
20
  7
Font_0
 50
90
  0
LINE
  8
1
  6
CONTINUOUS
 62
4
 10
28.54572
 20
113.132876
 11
28.54572
 21
133.132876
  0
LINE
  8
1
  6
CONTINUOUS
 62
4
 10
28.54572
 20
113.132876
 11
27.769263
 21
116.030653
  0
LINE
  8
1
  6
CONTINUOUS
 62
4
 10
28.54572
 20
113.132876
 11
29.322177
 21
116.030653
  0
LINE
  8
1
  6
CONTINUOUS
 62
4
 10
28.54572
 20
133.132876
 11
27.769263
 21
130.235098
  0
LINE
  8
1
  6
CONTINUOUS
 62
4
 10
28.54572
 20
133.132876
 11
29.322177
 21
130.235098
  0
LINE
  8
1
  6
CONTINUOUS
 62
4
 10
45.105072
 20
113.132876
 11
27.54572
 21
113.132876
  0
LINE
  8
1
  6
CONTINUOUS
 62
4
 10
45.105072
 20
133.132876
 11
27.54572
 21
133.132876
  0
ENDBLK
  0
BLOCK
  8
1
  2
BLKF010
 70
    0
 10
0
 20
0
 30
0.0
  3
BLKF010
  1

  0
TEXT
  8
1
 62
4
  6
BYLAYER
 62
4
 10
112.505075097084
 20
148.296157836914
 40
3.200000047684
  1
82
  7
Font_0
  0
LINE
  8
1
  6
CONTINUOUS
 62
4
 10
73.105072
 20
147.79617
 11
155.105072
 21
147.79617
  0
LINE
  8
1
  6
CONTINUOUS
 62
4
 10
73.105072
 20
147.79617
 11
76.002849
 21
148.572627
  0
LINE
  8
1
  6
CONTINUOUS
 62
4
 10
73.105072
 20
147.79617
 11
76.002849
 21
147.019712
  0
LINE
  8
1
  6
CONTINUOUS
 62
4
 10
155.105072
 20
147.79617
 11
152.207294
 21
148.572627
  0
LINE
  8
1
  6
CONTINUOUS
 62
4
 10
155.105072
 20
147.79617
 11
152.207294
 21
147.019712
  0
LINE
  8
1
  6
CONTINUOUS
 62
4
 10
73.105072
 20
142.132876
 11
73.105072
 21
148.79617
  0
ENDBLK
  0
BLOCK
  8
1
  2
BLKF009
 70
    0
 10
0
 20
0
 30
0.0
  3
BLKF009
  1

  0
TEXT
  8
1
 62
4
  6
BYLAYER
 62
4
 10
169.005075097084
 20
154.19091796875
 40
3.200000047684
  1
31
  7
Font_0
  0
LINE
  8
1
  6
CONTINUOUS
 62
4
 10
155.105072
 20
153.690926
 11
186.105072
 21
153.690926
  0
LINE
  8
1
  6
CONTINUOUS
 62
4
 10
155.105072
 20
153.690926
 11
158.002849
 21
154.467383
  0
LINE
  8
1
  6
CONTINUOUS
 62
4
 10
155.105072
 20
153.690926
 11
158.002849
 21
152.914469
  0
LINE
  8
1
  6
CONTINUOUS
 62
4
 10
186.105072
 20
153.690926
 11
183.207294
 21
154.467383
  0
LINE
  8
1
  6
CONTINUOUS
 62
4
 10
186.105072
 20
153.690926
 11
183.207294
 21
152.914469
  0
LINE
  8
1
  6
CONTINUOUS
 62
4
 10
186.105072
 20
130.132876
 11
186.105072
 21
154.690926
  0
ENDBLK
  0
BLOCK
  8
1
  2
BLKF008
 70
    0
 10
0
 20
0
 30
0.0
  3
BLKF008
  1

  0
TEXT
  8
1
 62
4
  6
BYLAYER
 62
4
 10
47.1450735569
 20
148.19091796875
 40
3.200000047684
  1
8
  7
Font_0
  0
LINE
  8
1
  6
CONTINUOUS
 62
4
 10
44.105072
 20
147.690926
 11
52.105072
 21
147.690926
  0
LINE
  8
1
  6
CONTINUOUS
 62
4
 10
44.105072
 20
147.690926
 11
47.002849
 21
148.467383
  0
LINE
  8
1
  6
CONTINUOUS
 62
4
 10
44.105072
 20
147.690926
 11
47.002849
 21
146.914469
  0
LINE
  8
1
  6
CONTINUOUS
 62
4
 10
52.105072
 20
147.690926
 11
49.207294
 21
148.467383
  0
LINE
  8
1
  6
CONTINUOUS
 62
4
 10
52.105072
 20
147.690926
 11
49.207294
 21
146.914469
  0
LINE
  8
1
  6
CONTINUOUS
 62
4
 10
52.105072
 20
136.492876
 11
52.105072
 21
148.690926
  0
ENDBLK
  0
BLOCK
  8
1
  2
BLKF007
 70
    0
 10
0
 20
0
 30
0.0
  3
BLKF007
  1

  0
TEXT
  8
1
 62
4
  6
BYLAYER
 62
4
 10
96.405068993568
 20
154.19091796875
 40
3.200000047684
  1
111
  7
Font_0
  0
LINE
  8
1
  6
CONTINUOUS
 62
4
 10
44.105072
 20
153.690926
 11
155.105072
 21
153.690926
  0
LINE
  8
1
  6
CONTINUOUS
 62
4
 10
44.105072
 20
153.690926
 11
47.002849
 21
154.467383
  0
LINE
  8
1
  6
CONTINUOUS
 62
4
 10
44.105072
 20
153.690926
 11
47.002849
 21
152.914469
  0
LINE
  8
1
  6
CONTINUOUS
 62
4
 10
155.105072
 20
153.690926
 11
152.207294
 21
154.467383
  0
LINE
  8
1
  6
CONTINUOUS
 62
4
 10
155.105072
 20
153.690926
 11
152.207294
 21
152.914469
  0
LINE
  8
1
  6
CONTINUOUS
 62
4
 10
44.105072
 20
132.132876
 11
44.105072
 21
154.690926
  0
LINE
  8
1
  6
CONTINUOUS
 62
4
 10
155.105072
 20
142.132876
 11
155.105072
 21
154.690926
  0
ENDBLK
  0
BLOCK
  8
1
  2
BLKF006
 70
    0
 10
0
 20
0
 30
0.0
  3
BLKF006
  1

  0
LINE
  8
1
  6
CONTINUOUS
 62
4
 10
101.105072
 20
88.688197
 11
107.105072
 21
82.688197
  0
LINE
  8
1
  6
CONTINUOUS
 62
4
 10
102.519285
 20
88.688197
 11
107.105072
 21
84.10241
  0
LINE
  8
1
  6
CONTINUOUS
 62
4
 10
103.933499
 20
88.688197
 11
107.105072
 21
85.516624
  0
LINE
  8
1
  6
CONTINUOUS
 62
4
 10
105.347712
 20
88.688197
 11
107.105072
 21
86.930838
  0
LINE
  8
1
  6
CONTINUOUS
 62
4
 10
106.761926
 20
88.688197
 11
107.105072
 21
88.345051
  0
LINE
  8
1
  6
CONTINUOUS
 62
4
 10
101.105072
 20
87.273983
 11
107.105072
 21
81.273983
  0
LINE
  8
1
  6
CONTINUOUS
 62
4
 10
101.105072
 20
85.85977
 11
107.105072
 21
79.85977
  0
LINE
  8
1
  6
CONTINUOUS
 62
4
 10
101.105072
 20
84.445556
 11
107.105072
 21
78.445556
  0
LINE
  8
1
  6
CONTINUOUS
 62
4
 10
101.105072
 20
83.031343
 11
107.105072
 21
77.031343
  0
LINE
  8
1
  6
CONTINUOUS
 62
4
 10
101.105072
 20
81.617129
 11
107.105072
 21
75.617129
  0
LINE
  8
1
  6
CONTINUOUS
 62
4
 10
101.105072
 20
80.202915
 11
107.105072
 21
74.202915
  0
LINE
  8
1
  6
CONTINUOUS
 62
4
 10
101.105072
 20
78.788702
 11
107.105072
 21
72.788702
  0
LINE
  8
1
  6
CONTINUOUS
 62
4
 10
101.105072
 20
77.374488
 11
107.105072
 21
71.374488
  0
LINE
  8
1
  6
CONTINUOUS
 62
4
 10
101.105072
 20
75.960275
 11
107.105072
 21
69.960275
  0
LINE
  8
1
  6
CONTINUOUS
 62
4
 10
101.105072
 20
74.546061
 11
107.105072
 21
68.546061
  0
LINE
  8
1
  6
CONTINUOUS
 62
4
 10
101.105072
 20
73.131848
 11
107.105072
 21
67.131848
  0
LINE
  8
1
  6
CONTINUOUS
 62
4
 10
101.105072
 20
71.717634
 11
107.105072
 21
65.717634
  0
LINE
  8
1
  6
CONTINUOUS
 62
4
 10
101.105072
 20
70.303421
 11
107.105072
 21
64.303421
  0
LINE
  8
1
  6
CONTINUOUS
 62
4
 10
101.105072
 20
68.889207
 11
107.105072
 21
62.889207
  0
LINE
  8
1
  6
CONTINUOUS
 62
4
 10
101.105072
 20
67.474993
 11
107.105072
 21
61.474993
  0
LINE
  8
1
  6
CONTINUOUS
 62
4
 10
101.105072
 20
66.06078
 11
107.105072
 21
60.06078
  0
LINE
  8
1
  6
CONTINUOUS
 62
4
 10
101.105072
 20
64.646566
 11
107.105072
 21
58.646566
  0
LINE
  8
1
  6
CONTINUOUS
 62
4
 10
101.105072
 20
63.232353
 11
107.105072
 21
57.232353
  0
LINE
  8
1
  6
CONTINUOUS
 62
4
 10
101.105072
 20
61.818139
 11
107.105072
 21
55.818139
  0
LINE
  8
1
  6
CONTINUOUS
 62
4
 10
101.105072
 20
60.403926
 11
107.105072
 21
54.403926
  0
LINE
  8
1
  6
CONTINUOUS
 62
4
 10
101.105072
 20
58.989712
 11
107.105072
 21
52.989712
  0
LINE
  8
1
  6
CONTINUOUS
 62
4
 10
101.105072
 20
57.575498
 11
105.992373
 21
52.688197
  0
LINE
  8
1
  6
CONTINUOUS
 62
4
 10
101.105072
 20
56.161285
 11
104.57816
 21
52.688197
  0
LINE
  8
1
  6
CONTINUOUS
 62
4
 10
101.105072
 20
54.747071
 11
103.163946
 21
52.688197
  0
LINE
  8
1
  6
CONTINUOUS
 62
4
 10
101.105072
 20
53.332858
 11
101.749733
 21
52.688197
  0
ENDBLK
  0
BLOCK
  8
1
  2
BLKF005
 70
    0
 10
0
 20
0
 30
0.0
  3
BLKF005
  1

  0
LINE
  8
1
  6
CONTINUOUS
 62
4
 10
101.105072
 20
87.273983
 11
102.519285
 21
88.688197
  0
LINE
  8
1
  6
CONTINUOUS
 62
4
 10
101.105072
 20
85.85977
 11
103.933499
 21
88.688197
  0
LINE
  8
1
  6
CONTINUOUS
 62
4
 10
101.105072
 20
84.445556
 11
105.347712
 21
88.688197
  0
LINE
  8
1
  6
CONTINUOUS
 62
4
 10
101.105072
 20
83.031343
 11
106.761926
 21
88.688197
  0
LINE
  8
1
  6
CONTINUOUS
 62
4
 10
101.105072
 20
81.617129
 11
107.105072
 21
87.617129
  0
LINE
  8
1
  6
CONTINUOUS
 62
4
 10
101.105072
 20
80.202915
 11
107.105072
 21
86.202915
  0
LINE
  8
1
  6
CONTINUOUS
 62
4
 10
101.105072
 20
78.788702
 11
107.105072
 21
84.788702
  0
LINE
  8
1
  6
CONTINUOUS
 62
4
 10
101.105072
 20
77.374488
 11
107.105072
 21
83.374488
  0
LINE
  8
1
  6
CONTINUOUS
 62
4
 10
101.105072
 20
75.960275
 11
107.105072
 21
81.960275
  0
LINE
  8
1
  6
CONTINUOUS
 62
4
 10
101.105072
 20
74.546061
 11
107.105072
 21
80.546061
  0
LINE
  8
1
  6
CONTINUOUS
 62
4
 10
101.105072
 20
73.131848
 11
107.105072
 21
79.131848
  0
LINE
  8
1
  6
CONTINUOUS
 62
4
 10
101.105072
 20
71.717634
 11
107.105072
 21
77.717634
  0
LINE
  8
1
  6
CONTINUOUS
 62
4
 10
101.105072
 20
70.303421
 11
107.105072
 21
76.303421
  0
LINE
  8
1
  6
CONTINUOUS
 62
4
 10
101.105072
 20
68.889207
 11
107.105072
 21
74.889207
  0
LINE
  8
1
  6
CONTINUOUS
 62
4
 10
101.105072
 20
67.474993
 11
107.105072
 21
73.474993
  0
LINE
  8
1
  6
CONTINUOUS
 62
4
 10
101.105072
 20
66.06078
 11
107.105072
 21
72.06078
  0
LINE
  8
1
  6
CONTINUOUS
 62
4
 10
101.105072
 20
64.646566
 11
107.105072
 21
70.646566
  0
LINE
  8
1
  6
CONTINUOUS
 62
4
 10
101.105072
 20
63.232353
 11
107.105072
 21
69.232353
  0
LINE
  8
1
  6
CONTINUOUS
 62
4
 10
101.105072
 20
61.818139
 11
107.105072
 21
67.818139
  0
LINE
  8
1
  6
CONTINUOUS
 62
4
 10
101.105072
 20
60.403926
 11
107.105072
 21
66.403926
  0
LINE
  8
1
  6
CONTINUOUS
 62
4
 10
101.105072
 20
58.989712
 11
107.105072
 21
64.989712
  0
LINE
  8
1
  6
CONTINUOUS
 62
4
 10
101.105072
 20
57.575498
 11
107.105072
 21
63.575498
  0
LINE
  8
1
  6
CONTINUOUS
 62
4
 10
101.105072
 20
56.161285
 11
107.105072
 21
62.161285
  0
LINE
  8
1
  6
CONTINUOUS
 62
4
 10
101.105072
 20
54.747071
 11
107.105072
 21
60.747071
  0
LINE
  8
1
  6
CONTINUOUS
 62
4
 10
101.105072
 20
53.332858
 11
107.105072
 21
59.332858
  0
LINE
  8
1
  6
CONTINUOUS
 62
4
 10
101.874624
 20
52.688197
 11
107.105072
 21
57.918644
  0
LINE
  8
1
  6
CONTINUOUS
 62
4
 10
103.288838
 20
52.688197
 11
107.105072
 21
56.504431
  0
LINE
  8
1
  6
CONTINUOUS
 62
4
 10
104.703052
 20
52.688197
 11
107.105072
 21
55.090217
  0
LINE
  8
1
  6
CONTINUOUS
 62
4
 10
106.117265
 20
52.688197
 11
107.105072
 21
53.676004
  0
ENDBLK
  0
BLOCK
  8
1
  2
BLKF004
 70
    0
 10
0
 20
0
 30
0.0
  3
BLKF004
  1

  0
LINE
  8
1
  6
CONTINUOUS
 62
4
 10
119.105072
 20
88.688197
 11
125.105072
 21
82.688197
  0
LINE
  8
1
  6
CONTINUOUS
 62
4
 10
120.519285
 20
88.688197
 11
125.105072
 21
84.10241
  0
LINE
  8
1
  6
CONTINUOUS
 62
4
 10
121.933499
 20
88.688197
 11
125.105072
 21
85.516624
  0
LINE
  8
1
  6
CONTINUOUS
 62
4
 10
123.347712
 20
88.688197
 11
125.105072
 21
86.930838
  0
LINE
  8
1
  6
CONTINUOUS
 62
4
 10
124.761926
 20
88.688197
 11
125.105072
 21
88.345051
  0
LINE
  8
1
  6
CONTINUOUS
 62
4
 10
119.105072
 20
87.273983
 11
125.105072
 21
81.273983
  0
LINE
  8
1
  6
CONTINUOUS
 62
4
 10
119.105072
 20
85.85977
 11
125.105072
 21
79.85977
  0
LINE
  8
1
  6
CONTINUOUS
 62
4
 10
119.105072
 20
84.445556
 11
125.105072
 21
78.445556
  0
LINE
  8
1
  6
CONTINUOUS
 62
4
 10
119.105072
 20
83.031343
 11
125.105072
 21
77.031343
  0
LINE
  8
1
  6
CONTINUOUS
 62
4
 10
119.105072
 20
81.617129
 11
125.105072
 21
75.617129
  0
LINE
  8
1
  6
CONTINUOUS
 62
4
 10
119.105072
 20
80.202915
 11
125.105072
 21
74.202915
  0
LINE
  8
1
  6
CONTINUOUS
 62
4
 10
119.105072
 20
78.788702
 11
125.105072
 21
72.788702
  0
LINE
  8
1
  6
CONTINUOUS
 62
4
 10
119.105072
 20
77.374488
 11
125.105072
 21
71.374488
  0
LINE
  8
1
  6
CONTINUOUS
 62
4
 10
119.105072
 20
75.960275
 11
125.105072
 21
69.960275
  0
LINE
  8
1
  6
CONTINUOUS
 62
4
 10
119.105072
 20
74.546061
 11
125.105072
 21
68.546061
  0
LINE
  8
1
  6
CONTINUOUS
 62
4
 10
119.105072
 20
73.131848
 11
125.105072
 21
67.131848
  0
LINE
  8
1
  6
CONTINUOUS
 62
4
 10
119.105072
 20
71.717634
 11
125.105072
 21
65.717634
  0
LINE
  8
1
  6
CONTINUOUS
 62
4
 10
119.105072
 20
70.303421
 11
125.105072
 21
64.303421
  0
LINE
  8
1
  6
CONTINUOUS
 62
4
 10
119.105072
 20
68.889207
 11
125.105072
 21
62.889207
  0
LINE
  8
1
  6
CONTINUOUS
 62
4
 10
119.105072
 20
67.474993
 11
125.105072
 21
61.474993
  0
LINE
  8
1
  6
CONTINUOUS
 62
4
 10
119.105072
 20
66.06078
 11
125.105072
 21
60.06078
  0
LINE
  8
1
  6
CONTINUOUS
 62
4
 10
119.105072
 20
64.646566
 11
125.105072
 21
58.646566
  0
LINE
  8
1
  6
CONTINUOUS
 62
4
 10
119.105072
 20
63.232353
 11
125.105072
 21
57.232353
  0
LINE
  8
1
  6
CONTINUOUS
 62
4
 10
119.105072
 20
61.818139
 11
125.105072
 21
55.818139
  0
LINE
  8
1
  6
CONTINUOUS
 62
4
 10
119.105072
 20
60.403926
 11
125.105072
 21
54.403926
  0
LINE
  8
1
  6
CONTINUOUS
 62
4
 10
119.105072
 20
58.989712
 11
125.105072
 21
52.989712
  0
LINE
  8
1
  6
CONTINUOUS
 62
4
 10
119.105072
 20
57.575498
 11
123.992373
 21
52.688197
  0
LINE
  8
1
  6
CONTINUOUS
 62
4
 10
119.105072
 20
56.161285
 11
122.57816
 21
52.688197
  0
LINE
  8
1
  6
CONTINUOUS
 62
4
 10
119.105072
 20
54.747071
 11
121.163946
 21
52.688197
  0
LINE
  8
1
  6
CONTINUOUS
 62
4
 10
119.105072
 20
53.332858
 11
119.749733
 21
52.688197
  0
ENDBLK
  0
BLOCK
  8
1
  2
BLKF003
 70
    0
 10
0
 20
0
 30
0.0
  3
BLKF003
  1

  0
LINE
  8
1
  6
CONTINUOUS
 62
4
 10
119.105072
 20
87.273983
 11
120.519285
 21
88.688197
  0
LINE
  8
1
  6
CONTINUOUS
 62
4
 10
119.105072
 20
85.85977
 11
121.933499
 21
88.688197
  0
LINE
  8
1
  6
CONTINUOUS
 62
4
 10
119.105072
 20
84.445556
 11
123.347712
 21
88.688197
  0
LINE
  8
1
  6
CONTINUOUS
 62
4
 10
119.105072
 20
83.031343
 11
124.761926
 21
88.688197
  0
LINE
  8
1
  6
CONTINUOUS
 62
4
 10
119.105072
 20
81.617129
 11
125.105072
 21
87.617129
  0
LINE
  8
1
  6
CONTINUOUS
 62
4
 10
119.105072
 20
80.202915
 11
125.105072
 21
86.202915
  0
LINE
  8
1
  6
CONTINUOUS
 62
4
 10
119.105072
 20
78.788702
 11
125.105072
 21
84.788702
  0
LINE
  8
1
  6
CONTINUOUS
 62
4
 10
119.105072
 20
77.374488
 11
125.105072
 21
83.374488
  0
LINE
  8
1
  6
CONTINUOUS
 62
4
 10
119.105072
 20
75.960275
 11
125.105072
 21
81.960275
  0
LINE
  8
1
  6
CONTINUOUS
 62
4
 10
119.105072
 20
74.546061
 11
125.105072
 21
80.546061
  0
LINE
  8
1
  6
CONTINUOUS
 62
4
 10
119.105072
 20
73.131848
 11
125.105072
 21
79.131848
  0
LINE
  8
1
  6
CONTINUOUS
 62
4
 10
119.105072
 20
71.717634
 11
125.105072
 21
77.717634
  0
LINE
  8
1
  6
CONTINUOUS
 62
4
 10
119.105072
 20
70.303421
 11
125.105072
 21
76.303421
  0
LINE
  8
1
  6
CONTINUOUS
 62
4
 10
119.105072
 20
68.889207
 11
125.105072
 21
74.889207
  0
LINE
  8
1
  6
CONTINUOUS
 62
4
 10
119.105072
 20
67.474993
 11
125.105072
 21
73.474993
  0
LINE
  8
1
  6
CONTINUOUS
 62
4
 10
119.105072
 20
66.06078
 11
125.105072
 21
72.06078
  0
LINE
  8
1
  6
CONTINUOUS
 62
4
 10
119.105072
 20
64.646566
 11
125.105072
 21
70.646566
  0
LINE
  8
1
  6
CONTINUOUS
 62
4
 10
119.105072
 20
63.232353
 11
125.105072
 21
69.232353
  0
LINE
  8
1
  6
CONTINUOUS
 62
4
 10
119.105072
 20
61.818139
 11
125.105072
 21
67.818139
  0
LINE
  8
1
  6
CONTINUOUS
 62
4
 10
119.105072
 20
60.403926
 11
125.105072
 21
66.403926
  0
LINE
  8
1
  6
CONTINUOUS
 62
4
 10
119.105072
 20
58.989712
 11
125.105072
 21
64.989712
  0
LINE
  8
1
  6
CONTINUOUS
 62
4
 10
119.105072
 20
57.575498
 11
125.105072
 21
63.575498
  0
LINE
  8
1
  6
CONTINUOUS
 62
4
 10
119.105072
 20
56.161285
 11
125.105072
 21
62.161285
  0
LINE
  8
1
  6
CONTINUOUS
 62
4
 10
119.105072
 20
54.747071
 11
125.105072
 21
60.747071
  0
LINE
  8
1
  6
CONTINUOUS
 62
4
 10
119.105072
 20
53.332858
 11
125.105072
 21
59.332858
  0
LINE
  8
1
  6
CONTINUOUS
 62
4
 10
119.874624
 20
52.688197
 11
125.105072
 21
57.918644
  0
LINE
  8
1
  6
CONTINUOUS
 62
4
 10
121.288838
 20
52.688197
 11
125.105072
 21
56.504431
  0
LINE
  8
1
  6
CONTINUOUS
 62
4
 10
122.703052
 20
52.688197
 11
125.105072
 21
55.090217
  0
LINE
  8
1
  6
CONTINUOUS
 62
4
 10
124.117265
 20
52.688197
 11
125.105072
 21
53.676004
  0
ENDBLK
  0
BLOCK
  8
1
  2
BLKF002
 70
    0
 10
0
 20
0
 30
0.0
  3
BLKF002
  1

  0
LINE
  8
1
  6
CONTINUOUS
 62
4
 10
137.105072
 20
88.688197
 11
143.105072
 21
82.688197
  0
LINE
  8
1
  6
CONTINUOUS
 62
4
 10
138.519285
 20
88.688197
 11
143.105072
 21
84.10241
  0
LINE
  8
1
  6
CONTINUOUS
 62
4
 10
139.933499
 20
88.688197
 11
143.105072
 21
85.516624
  0
LINE
  8
1
  6
CONTINUOUS
 62
4
 10
141.347712
 20
88.688197
 11
143.105072
 21
86.930838
  0
LINE
  8
1
  6
CONTINUOUS
 62
4
 10
142.761926
 20
88.688197
 11
143.105072
 21
88.345051
  0
LINE
  8
1
  6
CONTINUOUS
 62
4
 10
137.105072
 20
87.273983
 11
143.105072
 21
81.273983
  0
LINE
  8
1
  6
CONTINUOUS
 62
4
 10
137.105072
 20
85.85977
 11
143.105072
 21
79.85977
  0
LINE
  8
1
  6
CONTINUOUS
 62
4
 10
137.105072
 20
84.445556
 11
143.105072
 21
78.445556
  0
LINE
  8
1
  6
CONTINUOUS
 62
4
 10
137.105072
 20
83.031343
 11
143.105072
 21
77.031343
  0
LINE
  8
1
  6
CONTINUOUS
 62
4
 10
137.105072
 20
81.617129
 11
143.105072
 21
75.617129
  0
LINE
  8
1
  6
CONTINUOUS
 62
4
 10
137.105072
 20
80.202915
 11
143.105072
 21
74.202915
  0
LINE
  8
1
  6
CONTINUOUS
 62
4
 10
137.105072
 20
78.788702
 11
143.105072
 21
72.788702
  0
LINE
  8
1
  6
CONTINUOUS
 62
4
 10
137.105072
 20
77.374488
 11
143.105072
 21
71.374488
  0
LINE
  8
1
  6
CONTINUOUS
 62
4
 10
137.105072
 20
75.960275
 11
143.105072
 21
69.960275
  0
LINE
  8
1
  6
CONTINUOUS
 62
4
 10
137.105072
 20
74.546061
 11
143.105072
 21
68.546061
  0
LINE
  8
1
  6
CONTINUOUS
 62
4
 10
137.105072
 20
73.131848
 11
143.105072
 21
67.131848
  0
LINE
  8
1
  6
CONTINUOUS
 62
4
 10
137.105072
 20
71.717634
 11
143.105072
 21
65.717634
  0
LINE
  8
1
  6
CONTINUOUS
 62
4
 10
137.105072
 20
70.303421
 11
143.105072
 21
64.303421
  0
LINE
  8
1
  6
CONTINUOUS
 62
4
 10
137.105072
 20
68.889207
 11
143.105072
 21
62.889207
  0
LINE
  8
1
  6
CONTINUOUS
 62
4
 10
137.105072
 20
67.474993
 11
143.105072
 21
61.474993
  0
LINE
  8
1
  6
CONTINUOUS
 62
4
 10
137.105072
 20
66.06078
 11
143.105072
 21
60.06078
  0
LINE
  8
1
  6
CONTINUOUS
 62
4
 10
137.105072
 20
64.646566
 11
143.105072
 21
58.646566
  0
LINE
  8
1
  6
CONTINUOUS
 62
4
 10
137.105072
 20
63.232353
 11
143.105072
 21
57.232353
  0
LINE
  8
1
  6
CONTINUOUS
 62
4
 10
137.105072
 20
61.818139
 11
143.105072
 21
55.818139
  0
LINE
  8
1
  6
CONTINUOUS
 62
4
 10
137.105072
 20
60.403926
 11
143.105072
 21
54.403926
  0
LINE
  8
1
  6
CONTINUOUS
 62
4
 10
137.105072
 20
58.989712
 11
143.105072
 21
52.989712
  0
LINE
  8
1
  6
CONTINUOUS
 62
4
 10
137.105072
 20
57.575498
 11
141.992373
 21
52.688197
  0
LINE
  8
1
  6
CONTINUOUS
 62
4
 10
137.105072
 20
56.161285
 11
140.57816
 21
52.688197
  0
LINE
  8
1
  6
CONTINUOUS
 62
4
 10
137.105072
 20
54.747071
 11
139.163946
 21
52.688197
  0
LINE
  8
1
  6
CONTINUOUS
 62
4
 10
137.105072
 20
53.332858
 11
137.749733
 21
52.688197
  0
ENDBLK
  0
BLOCK
  8
1
  2
BLKF001
 70
    0
 10
0
 20
0
 30
0.0
  3
BLKF001
  1

  0
LINE
  8
1
  6
CONTINUOUS
 62
4
 10
137.105072
 20
87.273983
 11
138.519285
 21
88.688197
  0
LINE
  8
1
  6
CONTINUOUS
 62
4
 10
137.105072
 20
85.85977
 11
139.933499
 21
88.688197
  0
LINE
  8
1
  6
CONTINUOUS
 62
4
 10
137.105072
 20
84.445556
 11
141.347712
 21
88.688197
  0
LINE
  8
1
  6
CONTINUOUS
 62
4
 10
137.105072
 20
83.031343
 11
142.761926
 21
88.688197
  0
LINE
  8
1
  6
CONTINUOUS
 62
4
 10
137.105072
 20
81.617129
 11
143.105072
 21
87.617129
  0
LINE
  8
1
  6
CONTINUOUS
 62
4
 10
137.105072
 20
80.202915
 11
143.105072
 21
86.202915
  0
LINE
  8
1
  6
CONTINUOUS
 62
4
 10
137.105072
 20
78.788702
 11
143.105072
 21
84.788702
  0
LINE
  8
1
  6
CONTINUOUS
 62
4
 10
137.105072
 20
77.374488
 11
143.105072
 21
83.374488
  0
LINE
  8
1
  6
CONTINUOUS
 62
4
 10
137.105072
 20
75.960275
 11
143.105072
 21
81.960275
  0
LINE
  8
1
  6
CONTINUOUS
 62
4
 10
137.105072
 20
74.546061
 11
143.105072
 21
80.546061
  0
LINE
  8
1
  6
CONTINUOUS
 62
4
 10
137.105072
 20
73.131848
 11
143.105072
 21
79.131848
  0
LINE
  8
1
  6
CONTINUOUS
 62
4
 10
137.105072
 20
71.717634
 11
143.105072
 21
77.717634
  0
LINE
  8
1
  6
CONTINUOUS
 62
4
 10
137.105072
 20
70.303421
 11
143.105072
 21
76.303421
  0
LINE
  8
1
  6
CONTINUOUS
 62
4
 10
137.105072
 20
68.889207
 11
143.105072
 21
74.889207
  0
LINE
  8
1
  6
CONTINUOUS
 62
4
 10
137.105072
 20
67.474993
 11
143.105072
 21
73.474993
  0
LINE
  8
1
  6
CONTINUOUS
 62
4
 10
137.105072
 20
66.06078
 11
143.105072
 21
72.06078
  0
LINE
  8
1
  6
CONTINUOUS
 62
4
 10
137.105072
 20
64.646566
 11
143.105072
 21
70.646566
  0
LINE
  8
1
  6
CONTINUOUS
 62
4
 10
137.105072
 20
63.232353
 11
143.105072
 21
69.232353
  0
LINE
  8
1
  6
CONTINUOUS
 62
4
 10
137.105072
 20
61.818139
 11
143.105072
 21
67.818139
  0
LINE
  8
1
  6
CONTINUOUS
 62
4
 10
137.105072
 20
60.403926
 11
143.105072
 21
66.403926
  0
LINE
  8
1
  6
CONTINUOUS
 62
4
 10
137.105072
 20
58.989712
 11
143.105072
 21
64.989712
  0
LINE
  8
1
  6
CONTINUOUS
 62
4
 10
137.105072
 20
57.575498
 11
143.105072
 21
63.575498
  0
LINE
  8
1
  6
CONTINUOUS
 62
4
 10
137.105072
 20
56.161285
 11
143.105072
 21
62.161285
  0
LINE
  8
1
  6
CONTINUOUS
 62
4
 10
137.105072
 20
54.747071
 11
143.105072
 21
60.747071
  0
LINE
  8
1
  6
CONTINUOUS
 62
4
 10
137.105072
 20
53.332858
 11
143.105072
 21
59.332858
  0
LINE
  8
1
  6
CONTINUOUS
 62
4
 10
137.874624
 20
52.688197
 11
143.105072
 21
57.918644
  0
LINE
  8
1
  6
CONTINUOUS
 62
4
 10
139.288838
 20
52.688197
 11
143.105072
 21
56.504431
  0
LINE
  8
1
  6
CONTINUOUS
 62
4
 10
140.703052
 20
52.688197
 11
143.105072
 21
55.090217
  0
LINE
  8
1
  6
CONTINUOUS
 62
4
 10
142.117265
 20
52.688197
 11
143.105072
 21
53.676004
  0
ENDBLK
  0
BLOCK
  8
1
  2
BLKF000
 70
    0
 10
0
 20
0
 30
0.0
  3
BLKF000
  1

  0
LINE
  8
1
  6
CONTINUOUS
 62
4
 10
59.155981
 20
113.132876
 11
60.399617
 21
113.132876
  0
ENDBLK
  0
ENDSEC
  0
SECTION
  2
ENTITIES
  0
LINE
  8
1
  6
CONTINUOUS
 62
3
 10
171.506523
 20
112.958412
 11
171.506523
 21
126.958412
  0
LINE
  8
1
  6
CONTINUOUS
 62
3
 10
171.506523
 20
157.958412
 11
169.506523
 21
157.958412
  0
LINE
  8
1
  6
CONTINUOUS
 62
3
 10
171.506523
 20
113.458412
 11
174.506523
 21
113.458412
  0
LINE
  8
1
  6
CONTINUOUS
 62
3
 10
201.006523
 20
126.958412
 11
208.506523
 21
126.958412
  0
LINE
  8
1
  6
CONTINUOUS
 62
3
 10
208.506523
 20
123.458412
 11
208.506523
 21
124.664073
  0
ARC
  8
1
  6
CONTINUOUS
 62
3
 10
205.506523
 20
147.458412
 40
3
 50
0
 51
90
  0
LINE
  8
1
  6
CONTINUOUS
 62
3
 10
205.506523
 20
150.458412
 11
189.705207
 21
150.458412
  0
LINE
  8
1
  6
CONTINUOUS
 62
3
 10
201.006523
 20
143.958412
 11
208.506523
 21
143.958412
  0
ARC
  8
1
  6
CONTINUOUS
 62
3
 10
189.705207
 20
100.458412
 40
20
 50
90
 51
139.458398
  0
LINE
  8
1
  6
CONTINUOUS
 62
3
 10
174.506523
 20
157.458412
 11
171.506523
 21
157.458412
  0
ARC
  8
1
  6
CONTINUOUS
 62
3
 10
189.705207
 20
170.458412
 40
20
 50
220.541602
 51
270
  0
ARC
  8
1
  6
CONTINUOUS
 62
3
 10
205.506523
 20
123.458412
 40
3
 50
270
 51
360
  0
LINE
  8
1
  6
CONTINUOUS
 62
3
 10
201.906523
 20
92
 11
200.700941
 21
92
  0
LINE
  8
1
  6
CONTINUOUS
 62
3
 10
173.881523
 20
92
 11
170.906523
 21
92
  0
LINE
  8
1
  6
CONTINUOUS
 62
3
 10
170.906523
 20
70
 11
170.906523
 21
92.5
  0
LINE
  8
1
  6
CONTINUOUS
 62
3
 10
170.906523
 20
92.5
 11
168.906523
 21
92.5
  0
LINE
  8
1
  6
CONTINUOUS
 62
3
 10
168.906523
 20
47.5
 11
170.906523
 21
47.5
  0
LINE
  8
1
  6
CONTINUOUS
 62
3
 10
170.906523
 20
70
 11
170.906523
 21
47.5
  0
ARC
  8
1
  6
CONTINUOUS
 62
3
 10
178.906523
 20
27.506098
 40
22
 50
68.676314
 51
111.323686
  0
ARC
  8
1
  6
CONTINUOUS
 62
3
 10
178.906523
 20
118.311691
 40
26.78723
 50
259.187863
 51
280.812137
  0
ARC
  8
1
  6
CONTINUOUS
 62
3
 10
195.906523
 20
86.5
 40
1.55
 50
-293.927049
 51
3.927049
  0
LINE
  8
1
  6
CONTINUOUS
 62
3
 10
207.906523
 20
86
 11
207.906523
 21
54
  0
LINE
  8
1
  6
CONTINUOUS
 62
3
 10
201.906523
 20
48
 11
186.906523
 21
48
  0
ARC
  8
1
  6
CONTINUOUS
 62
3
 10
201.906523
 20
54
 40
6
 50
270
 51
360
  0
ARC
  8
1
  6
CONTINUOUS
 62
3
 10
201.906523
 20
86
 40
6
 50
0
 51
65.564351
  0
LINE
  8
1
  6
DASHDOT
 62
4
 10
195.906523
 20
83.3
 11
195.906523
 21
90.242857
  0
LINE
  8
1
  6
DASHDOT
 62
4
 10
199.513666
 20
86.5
 11
191.927952
 21
86.5
  0
LINE
  8
1
  6
CONTINUOUS
 62
3
 10
182.794255
 20
151.690387
 11
182.794255
 21
143.958412
  0
LINE
  8
1
  6
CONTINUOUS
 62
3
 10
182.794255
 20
119.226436
 11
182.794255
 21
126.958412
  0
LINE
  8
1
  6
CONTINUOUS
 62
3
 10
189.705207
 20
120.458412
 11
205.506523
 21
120.458412
  0
LINE
  8
1
  6
CONTINUOUS
 62
3
 10
188.506523
 20
124.958412
 11
203.489576
 21
124.958412
  0
LINE
  8
1
  6
CONTINUOUS
 62
3
 10
201.006523
 20
124.958412
 11
201.006523
 21
129.458412
  0
LINE
  8
1
  6
CONTINUOUS
 62
3
 10
202.006523
 20
130.458412
 11
203.006523
 21
130.458412
  0
LINE
  8
1
  6
CONTINUOUS
 62
3
 10
203.006523
 20
130.458412
 11
203.006523
 21
140.458412
  0
LINE
  8
1
  6
CONTINUOUS
 62
3
 10
203.006523
 20
140.458412
 11
202.006523
 21
140.458412
  0
LINE
  8
1
  6
CONTINUOUS
 62
3
 10
201.006523
 20
141.458412
 11
201.006523
 21
145.958412
  0
LINE
  8
1
  6
CONTINUOUS
 62
3
 10
203.489576
 20
145.958412
 11
188.506523
 21
145.958412
  0
LINE
  8
1
  6
CONTINUOUS
 62
3
 10
185.678096
 20
143.958412
 11
99.506523
 21
143.958412
  0
ARC
  8
1
  6
CONTINUOUS
 62
3
 10
99.506523
 20
135.458412
 40
8.5
 50
90
 51
270
  0
LINE
  8
1
  6
CONTINUOUS
 62
3
 10
99.506523
 20
126.958412
 11
185.678096
 21
126.958412
  0
ARC
  8
1
  6
CONTINUOUS
 62
3
 10
185.678096
 20
123.958412
 40
3
 50
19.471221
 51
90
  0
ARC
  8
1
  6
CONTINUOUS
 62
3
 10
202.006523
 20
129.458412
 40
1
 50
90
 51
180
  0
ARC
  8
1
  6
CONTINUOUS
 62
3
 10
202.006523
 20
141.458412
 40
1
 50
180
 51
270
  0
ARC
  8
1
  6
CONTINUOUS
 62
3
 10
185.678096
 20
146.958412
 40
3
 50
270
 51
340.528779
  0
LINE
  8
1
  6
CONTINUOUS
 62
3
 10
162.006523
 20
139.458412
 11
120.006523
 21
139.458412
  0
ARC
  8
1
  6
CONTINUOUS
 62
3
 10
120.006523
 20
135.458412
 40
4
 50
90
 51
270
  0
LINE
  8
1
  6
CONTINUOUS
 62
3
 10
120.006523
 20
131.458412
 11
162.006523
 21
131.458412
  0
ARC
  8
1
  6
CONTINUOUS
 62
3
 10
162.006523
 20
135.458412
 40
4
 50
-90
 51
90
  0
LINE
  8
1
  6
CONTINUOUS
 62
3
 10
207.905795
 20
53.906523
 11
190
 21
53.906523
  0
LINE
  8
1
  6
CONTINUOUS
 62
3
 10
182.194255
 20
91.726986
 11
207.906523
 21
66.014718
  0
ARC
  8
1
  6
CONTINUOUS
 62
3
 10
190
 20
70
 40
16.093477
 50
97.290064
 51
270
  0
LINE
  8
1
  6
DASHDOT
 62
4
 10
196.506523
 20
122.022682
 11
196.506523
 21
149.016934
  0
LINE
  8
1
  6
CONTINUOUS
 62
3
 10
169.506523
 20
112.958412
 11
169.506523
 21
126.958412
  0
LINE
  8
1
  6
CONTINUOUS
 62
3
 10
169.506523
 20
157.958412
 11
90.506523
 21
157.958412
  0
LINE
  8
1
  6
CONTINUOUS
 62
3
 10
90.506523
 20
157.958412
 11
90.506523
 21
135.458412
  0
LINE
  8
1
  6
CONTINUOUS
 62
3
 10
83.506523
 20
129.458412
 11
83.506523
 21
141.458412
  0
LINE
  8
1
  6
CONTINUOUS
 62
3
 10
83.506523
 20
141.458412
 11
60.506523
 21
141.458412
  0
LINE
  8
1
  6
CONTINUOUS
 62
3
 10
60.506523
 20
141.458412
 11
60.506523
 21
143.458412
  0
LINE
  8
1
  6
CONTINUOUS
 62
3
 10
60.506523
 20
143.458412
 11
64.006523
 21
146.958412
  0
LINE
  8
1
  6
CONTINUOUS
 62
3
 10
64.006523
 20
146.958412
 11
75.307839
 21
146.958412
  0
ARC
  8
1
  6
CONTINUOUS
 62
3
 10
75.307839
 20
162.958412
 40
16
 50
270
 51
341.790043
  0
LINE
  8
1
  6
CONTINUOUS
 62
3
 10
59.906523
 20
70
 11
59.906523
 21
63.083333
  0
LINE
  8
1
  6
CONTINUOUS
 62
3
 10
62.906523
 20
64
 11
62.906523
 21
70
  0
LINE
  8
1
  6
CONTINUOUS
 62
3
 10
62.906523
 20
64
 11
73.041727
 21
59.495464
  0
LINE
  8
1
  6
CONTINUOUS
 62
3
 10
83.506523
 20
51.25
 11
61.752677
 21
60.314102
  0
ARC
  8
1
  6
CONTINUOUS
 62
3
 10
62.906523
 20
63.083333
 40
3
 50
180
 51
247.380135
  0
ARC
  8
1
  6
CONTINUOUS
 62
3
 10
69.406523
 20
70
 40
5
 50
180
 51
360
  0
LINE
  8
1
  6
CONTINUOUS
 62
3
 10
83.506523
 20
51.25
 11
83.506523
 21
50.166666
  0
LINE
  8
1
  6
CONTINUOUS
 62
3
 10
83.506523
 20
50.166666
 11
89.906523
 21
47.5
  0
LINE
  8
1
  6
CONTINUOUS
 62
3
 10
89.906523
 20
47.5
 11
168.906523
 21
47.5
  0
LINE
  8
1
  6
CONTINUOUS
 62
3
 10
168.906523
 20
47.5
 11
168.906523
 21
70
  0
LINE
  8
1
  6
CONTINUOUS
 62
3
 10
89.906523
 20
70
 11
89.906523
 21
47.5
  0
ARC
  8
1
  6
CONTINUOUS
 62
3
 10
77.915389
 20
70.461203
 40
12
 50
246.037511
 51
357.797374
  0
LINE
  8
1
  6
DASHDOT
 62
4
 10
247.083045
 20
70
 11
55.223864
 21
70
  0
LINE
  8
1
  6
DASHDOT
 62
4
 10
69.406523
 20
62.823073
 11
69.406523
 21
78.204642
  0
LINE
  8
1
  6
DASHDOT
 62
4
 10
70.006523
 20
149.019624
 11
70.006523
 21
114.588875
  0
LINE
  8
1
  6
DASHDOT
 62
4
 10
265.671498
 20
135.458412
 11
56.399208
 21
135.458412
  0
LINE
  8
1
  6
CONTINUOUS
 62
3
 10
90.506523
 20
112.958412
 11
90.506523
 21
135.458412
  0
ARC
  8
1
  6
CONTINUOUS
 62
3
 10
75.307839
 20
107.958412
 40
16
 50
18.209957
 51
90
  0
LINE
  8
1
  6
CONTINUOUS
 62
3
 10
83.506523
 20
129.458412
 11
60.506523
 21
129.458412
  0
LINE
  8
1
  6
CONTINUOUS
 62
3
 10
60.506523
 20
129.458412
 11
60.506523
 21
127.458412
  0
LINE
  8
1
  6
CONTINUOUS
 62
3
 10
60.506523
 20
127.458412
 11
64.006523
 21
123.958412
  0
LINE
  8
1
  6
CONTINUOUS
 62
3
 10
64.006523
 20
123.958412
 11
75.307839
 21
123.958412
  0
LINE
  8
1
  6
CONTINUOUS
 62
3
 10
59.906523
 20
70
 11
59.906523
 21
76.916666
  0
LINE
  8
1
  6
CONTINUOUS
 62
3
 10
62.906523
 20
76
 11
62.906523
 21
70
  0
LINE
  8
1
  6
CONTINUOUS
 62
3
 10
62.906523
 20
76
 11
73.041727
 21
80.504535
  0
LINE
  8
1
  6
CONTINUOUS
 62
3
 10
83.506523
 20
88.75
 11
61.752677
 21
79.685897
  0
ARC
  8
1
  6
CONTINUOUS
 62
3
 10
62.906523
 20
76.916666
 40
3
 50
112.619865
 51
180
  0
ARC
  8
1
  6
CONTINUOUS
 62
3
 10
69.406523
 20
70
 40
5
 50
0
 51
180
  0
LINE
  8
1
  6
CONTINUOUS
 62
3
 10
83.506523
 20
88.75
 11
83.506523
 21
89.833333
  0
LINE
  8
1
  6
CONTINUOUS
 62
3
 10
83.506523
 20
89.833333
 11
89.906523
 21
92.5
  0
LINE
  8
1
  6
CONTINUOUS
 62
3
 10
89.906523
 20
92.5
 11
168.906523
 21
92.5
  0
LINE
  8
1
  6
CONTINUOUS
 62
3
 10
168.906523
 20
92.5
 11
168.906523
 21
70
  0
LINE
  8
1
  6
CONTINUOUS
 62
3
 10
89.906523
 20
70
 11
89.906523
 21
92.5
  0
ARC
  8
1
  6
CONTINUOUS
 62
3
 10
77.915389
 20
69.538796
 40
12
 50
2.202626
 51
113.962489
  0
LINE
  8
1
  6
CONTINUOUS
 62
4
 10
155.906523
 20
47.5
 11
155.906523
 21
92.5
  0
LINE
  8
1
  6
CONTINUOUS
 62
4
 10
149.906523
 20
92.5
 11
149.906523
 21
47.5
  0
ARC
  8
1
  6
CONTINUOUS
 62
3
 10
61.406523
 20
64
 40
1.5
 50
180
 51
360
  0
ARC
  8
1
  6
CONTINUOUS
 62
3
 10
61.406523
 20
76
 40
1.5
 50
0
 51
180
  0
LINE
  8
1
  6
CONTINUOUS
 62
3
 10
169.506523
 20
112.958412
 11
90.506523
 21
112.958412
  0
LINE
  8
1
  6
CONTINUOUS
 62
3
 10
171.506523
 20
112.958412
 11
169.506523
 21
112.958412
  0
ARC
  8
1
  6
CONTINUOUS
 62
3
 10
195.906523
 20
86.5
 40
4.5
 50
198.562557
 51
357
  0
LINE
  8
1
  6
CONTINUOUS
 62
3
 10
200.400356
 20
86.264488
 11
200.531226
 21
88.761632
  0
LINE
  8
1
  6
CONTINUOUS
 62
3
 10
200.819044
 20
94.253524
 11
166.21731
 21
96.066924
  0
LINE
  8
1
  6
CONTINUOUS
 62
3
 10
165.60494
 20
96.318449
 11
163.737178
 21
97.980215
  0
ARC
  8
1
  6
CONTINUOUS
 62
3
 10
163.072472
 20
97.23311
 40
1
 50
48.340192
 51
87
  0
LINE
  8
1
  6
CONTINUOUS
 62
3
 10
163.124808
 20
98.23174
 11
118.887079
 21
100.550141
  0
ARC
  8
1
  6
CONTINUOUS
 62
3
 10
118.834743
 20
99.551511
 40
1
 50
87
 51
125.659808
  0
LINE
  8
1
  6
CONTINUOUS
 62
3
 10
118.251772
 20
100.364004
 11
116.22054
 21
98.906576
  0
LINE
  8
1
  6
CONTINUOUS
 62
3
 10
115.585233
 20
98.720439
 11
90.969795
 21
100.010479
  0
LINE
  8
1
  6
CONTINUOUS
 62
3
 10
90.969795
 20
100.010479
 11
91.053532
 21
101.608286
  0
LINE
  8
1
  6
CONTINUOUS
 62
3
 10
91.053532
 20
101.608286
 11
115.66897
 21
100.318246
  0
ARC
  8
1
  6
CONTINUOUS
 62
3
 10
115.721306
 20
101.316876
 40
1
 50
267
 51
305.659808
  0
LINE
  8
1
  6
CONTINUOUS
 62
3
 10
116.304278
 20
100.504383
 11
118.335509
 21
101.961811
  0
LINE
  8
1
  6
CONTINUOUS
 62
3
 10
118.970817
 20
102.147948
 11
163.208545
 21
99.829547
  0
LINE
  8
1
  6
CONTINUOUS
 62
3
 10
163.820916
 20
99.578022
 11
165.688677
 21
97.916256
  0
ARC
  8
1
  6
CONTINUOUS
 62
3
 10
166.353384
 20
98.663361
 40
1
 50
228.340192
 51
267
  0
LINE
  8
1
  6
CONTINUOUS
 62
3
 10
166.301048
 20
97.664731
 11
202.200999
 21
95.783295
  0
LINE
  8
1
  6
CONTINUOUS
 62
3
 10
202.863405
 20
95.047619
 11
202.716528
 21
92.245036
  0
LINE
  8
1
  6
CONTINUOUS
 62
3
 10
202.592029
 20
92.157861
 11
200.714372
 21
92.256265
  0
ARC
  8
1
  6
CONTINUOUS
 62
3
 10
202.164364
 20
95.084254
 40
0.7
 50
-3
 51
87
  0
LINE
  8
1
  6
CONTINUOUS
 62
3
 10
189.020764
 20
92.869101
 11
99.570973
 21
97.556966
  0
ARC
  8
1
  6
CONTINUOUS
 62
3
 10
100.617692
 20
117.529557
 40
20
 50
241.158067
 51
267
  0
ARC
  8
1
  6
CONTINUOUS
 62
3
 10
115.637569
 20
99.719068
 40
1
 50
267
 51
305.659808
  0
ARC
  8
1
  6
CONTINUOUS
 62
3
 10
118.918481
 20
101.149319
 40
1
 50
87
 51
125.659808
  0
ARC
  8
1
  6
CONTINUOUS
 62
3
 10
163.156209
 20
98.830918
 40
1
 50
48.340192
 51
87
  0
ARC
  8
1
  6
CONTINUOUS
 62
3
 10
166.269646
 20
97.065554
 40
1
 50
228.340192
 51
267
  0
LINE
  8
1
  6
CONTINUOUS
 62
3
 10
189.020764
 20
92.869101
 11
191.640628
 21
85.06747
  0
ARC
  8
1
  6
CONTINUOUS
 62
3
 10
195.906523
 20
86.5
 40
1.65
 50
-295.997454
 51
5.997454
  0
LINE
  8
1
  6
CONTINUOUS
 62
3
 10
189.312617
 20
92
 11
183.931523
 21
92
  0
LINE
  8
1
  6
CONTINUOUS
 62
3
 10
220.349884
 20
104.592045
 11
195.447662
 21
87.155321
  0
LINE
  8
1
  6
CONTINUOUS
 62
3
 10
221.267606
 20
103.281402
 11
196.365384
 21
85.844678
  0
ARC
  8
1
  6
CONTINUOUS
 62
3
 10
195.906523
 20
86.5
 40
0.8
 50
125
 51
305
  0
ARC
  8
1
  6
CONTINUOUS
 62
3
 10
220.808745
 20
103.936723
 40
0.8
 50
-55
 51
125
  0
ARC
  8
1
  6
CONTINUOUS
 62
3
 10
201.906523
 20
86
 40
6
 50
85.820669
 51
90
  0
LINE
  8
1
  6
CONTINUOUS
 62
3
 10
200.63749
 20
90.789278
 11
200.819044
 21
94.253524
  0
LINE
  8
1
  6
CONTINUOUS
 62
3
 10
195.706523
 20
145.958412
 11
195.706523
 21
147.058412
  0
LINE
  8
1
  6
CONTINUOUS
 62
3
 10
196.206523
 20
147.558412
 11
203.489576
 21
147.558412
  0
ARC
  8
1
  6
CONTINUOUS
 62
3
 10
196.206523
 20
147.058412
 40
0.5
 50
90
 51
180
  0
LINE
  8
1
  6
CONTINUOUS
 62
3
 10
195.706523
 20
124.958412
 11
195.706523
 21
123.858412
  0
LINE
  8
1
  6
CONTINUOUS
 62
3
 10
196.206523
 20
123.358412
 11
203.489576
 21
123.358412
  0
ARC
  8
1
  6
CONTINUOUS
 62
3
 10
196.206523
 20
123.858412
 40
0.5
 50
180
 51
270
  0
LINE
  8
1
  6
CONTINUOUS
 62
3
 10
208.506523
 20
146.25275
 11
208.506523
 21
147.458412
  0
LINE
  8
1
  6
CONTINUOUS
 62
3
 10
208.506523
 20
126.264073
 11
208.506523
 21
144.65275
  0
LINE
  8
1
  6
CONTINUOUS
 62
3
 10
171.506523
 20
157.958412
 11
171.506523
 21
143.958412
  0
LINE
  8
1
  6
CONTINUOUS
 62
3
 10
169.506523
 20
157.958412
 11
169.506523
 21
143.958412
  0
CIRCLE
  8
1
  6
CONTINUOUS
 62
3
 10
69.406523
 20
70
 40
2
  0
CIRCLE
  8
1
  6
CONTINUOUS
 62
4
 10
69.406523
 20
70
 40
1.65
  0
LINE
  8
1
  6
CONTINUOUS
 62
3
 10
71.427249
 20
66.5
 11
67.385797
 21
66.5
  0
LINE
  8
1
  6
CONTINUOUS
 62
3
 10
67.385797
 20
66.5
 11
65.365071
 21
70
  0
LINE
  8
1
  6
CONTINUOUS
 62
3
 10
71.427249
 20
66.5
 11
73.447975
 21
70
  0
LINE
  8
1
  6
CONTINUOUS
 62
3
 10
71.427249
 20
73.5
 11
67.385797
 21
73.5
  0
LINE
  8
1
  6
CONTINUOUS
 62
3
 10
67.385797
 20
73.5
 11
65.365071
 21
70
  0
LINE
  8
1
  6
CONTINUOUS
 62
3
 10
71.427249
 20
73.5
 11
73.447975
 21
70
  0
LINE
  8
1
  6
CONTINUOUS
 62
3
 10
68.506523
 20
116.958412
 11
71.506523
 21
116.958412
  0
LINE
  8
1
  6
CONTINUOUS
 62
3
 10
72.006523
 20
122.758412
 11
72.006523
 21
117.458412
  0
LINE
  8
1
  6
CONTINUOUS
 62
4
 10
71.656523
 20
122.758412
 11
71.656523
 21
117.108412
  0
LINE
  8
1
  6
CONTINUOUS
 62
3
 10
71.506523
 20
116.958412
 11
72.006523
 21
117.458412
  0
LINE
  8
1
  6
CONTINUOUS
 62
4
 10
72.006523
 20
117.458412
 11
70.006523
 21
117.458412
  0
LINE
  8
1
  6
CONTINUOUS
 62
4
 10
68.356523
 20
122.758412
 11
68.356523
 21
117.108412
  0
LINE
  8
1
  6
CONTINUOUS
 62
3
 10
68.506523
 20
116.958412
 11
68.006523
 21
117.458412
  0
LINE
  8
1
  6
CONTINUOUS
 62
4
 10
68.006523
 20
117.458412
 11
70.006523
 21
117.458412
  0
LINE
  8
1
  6
CONTINUOUS
 62
3
 10
68.006523
 20
122.758412
 11
68.006523
 21
117.458412
  0
CIRCLE
  8
1
  6
CONTINUOUS
 62
3
 10
69.406523
 20
70
 40
3.5
  0
LINE
  8
1
  6
CONTINUOUS
 62
3
 10
65.365071
 20
123.958412
 11
65.365071
 21
123.071019
  0
LINE
  8
1
  6
CONTINUOUS
 62
3
 10
67.385797
 20
123.958412
 11
67.385797
 21
123.071019
  0
LINE
  8
1
  6
CONTINUOUS
 62
3
 10
65.906523
 20
122.758412
 11
74.106523
 21
122.758412
  0
LINE
  8
1
  6
CONTINUOUS
 62
3
 10
65.906523
 20
122.758412
 11
65.365071
 21
123.071019
  0
LINE
  8
1
  6
CONTINUOUS
 62
3
 10
74.647975
 20
123.958412
 11
74.647975
 21
123.071019
  0
LINE
  8
1
  6
CONTINUOUS
 62
3
 10
72.627249
 20
123.958412
 11
72.627249
 21
123.071019
  0
LINE
  8
1
  6
CONTINUOUS
 62
3
 10
74.106523
 20
122.758412
 11
74.647975
 21
123.071019
  0
ARC
  8
1
  6
CONTINUOUS
 62
3
 10
70.006523
 20
133.900067
 40
11.141656
 50
256.395484
 51
283.604516
  0
ARC
  8
1
  6
CONTINUOUS
 62
3
 10
75.428555
 20
132.670638
 40
10
 50
253.732
 51
262.403074
  0
ARC
  8
1
  6
CONTINUOUS
 62
3
 10
64.584491
 20
132.670638
 40
10
 50
277.596926
 51
286.268
  0
LINE
  8
1
  6
CONTINUOUS
 62
3
 10
72.006523
 20
141.458412
 11
72.006523
 21
129.458412
  0
LINE
  8
1
  6
CONTINUOUS
 62
3
 10
68.006523
 20
141.458412
 11
68.006523
 21
129.458412
  0
INSERT
  8
1
  6
CONTINUOUS
  2
BLKF028
 10
-132.210992
 20
-110.59168
 30
0.0
  0
INSERT
  8
1
  6
CONTINUOUS
  2
BLKF029
 10
-132.210992
 20
-110.59168
 30
0.0
  0
LINE
  8
1
  6
CONTINUOUS
 62
4
 10
137.906523
 20
47.5
 11
137.906523
 21
92.5
  0
LINE
  8
1
  6
CONTINUOUS
 62
4
 10
131.906523
 20
92.5
 11
131.906523
 21
47.5
  0
INSERT
  8
1
  6
CONTINUOUS
  2
BLKF030
 10
-132.210992
 20
-110.59168
 30
0.0
  0
INSERT
  8
1
  6
CONTINUOUS
  2
BLKF031
 10
-132.210992
 20
-110.59168
 30
0.0
  0
LINE
  8
1
  6
CONTINUOUS
 62
4
 10
119.906523
 20
47.5
 11
119.906523
 21
92.5
  0
LINE
  8
1
  6
CONTINUOUS
 62
4
 10
113.906523
 20
92.5
 11
113.906523
 21
47.5
  0
INSERT
  8
1
  6
CONTINUOUS
  2
BLKF032
 10
-132.210992
 20
-110.59168
 30
0.0
  0
INSERT
  8
1
  6
CONTINUOUS
  2
BLKF033
 10
-132.210992
 20
-110.59168
 30
0.0
  0
LINE
  8
1
  6
CONTINUOUS
 62
4
 10
149.906523
 20
143.958412
 11
149.906523
 21
157.958412
  0
LINE
  8
1
  6
CONTINUOUS
 62
4
 10
155.906523
 20
143.958412
 11
155.906523
 21
157.958412
  0
INSERT
  8
1
  6
CONTINUOUS
  2
BLKF034
 10
-132.210992
 20
-110.59168
 30
0.0
  0
INSERT
  8
1
  6
CONTINUOUS
  2
BLKF035
 10
-132.210992
 20
-110.59168
 30
0.0
  0
LINE
  8
1
  6
CONTINUOUS
 62
4
 10
131.906523
 20
143.958412
 11
131.906523
 21
157.958412
  0
LINE
  8
1
  6
CONTINUOUS
 62
4
 10
137.906523
 20
143.958412
 11
137.906523
 21
157.958412
  0
INSERT
  8
1
  6
CONTINUOUS
  2
BLKF036
 10
-132.210992
 20
-110.59168
 30
0.0
  0
INSERT
  8
1
  6
CONTINUOUS
  2
BLKF037
 10
-132.210992
 20
-110.59168
 30
0.0
  0
LINE
  8
1
  6
CONTINUOUS
 62
4
 10
113.906523
 20
143.958412
 11
113.906523
 21
157.958412
  0
LINE
  8
1
  6
CONTINUOUS
 62
4
 10
119.906523
 20
143.958412
 11
119.906523
 21
157.958412
  0
INSERT
  8
1
  6
CONTINUOUS
  2
BLKF038
 10
-132.210992
 20
-110.59168
 30
0.0
  0
INSERT
  8
1
  6
CONTINUOUS
  2
BLKF039
 10
-132.210992
 20
-110.59168
 30
0.0
  0
LINE
  8
1
  6
CONTINUOUS
 62
4
 10
149.906523
 20
112.958412
 11
149.906523
 21
126.958412
  0
LINE
  8
1
  6
CONTINUOUS
 62
4
 10
155.906523
 20
112.958412
 11
155.906523
 21
126.958412
  0
INSERT
  8
1
  6
CONTINUOUS
  2
BLKF040
 10
-132.210992
 20
-110.59168
 30
0.0
  0
INSERT
  8
1
  6
CONTINUOUS
  2
BLKF041
 10
-132.210992
 20
-110.59168
 30
0.0
  0
LINE
  8
1
  6
CONTINUOUS
 62
4
 10
131.906523
 20
112.958412
 11
131.906523
 21
126.958412
  0
LINE
  8
1
  6
CONTINUOUS
 62
4
 10
137.906523
 20
112.958412
 11
137.906523
 21
126.958412
  0
INSERT
  8
1
  6
CONTINUOUS
  2
BLKF042
 10
-132.210992
 20
-110.59168
 30
0.0
  0
INSERT
  8
1
  6
CONTINUOUS
  2
BLKF043
 10
-132.210992
 20
-110.59168
 30
0.0
  0
LINE
  8
1
  6
CONTINUOUS
 62
4
 10
113.906523
 20
112.958412
 11
113.906523
 21
126.958412
  0
LINE
  8
1
  6
CONTINUOUS
 62
4
 10
119.906523
 20
112.958412
 11
119.906523
 21
126.958412
  0
INSERT
  8
1
  6
CONTINUOUS
  2
BLKF044
 10
-132.210992
 20
-110.59168
 30
0.0
  0
INSERT
  8
1
  6
CONTINUOUS
  2
BLKF045
 10
-132.210992
 20
-110.59168
 30
0.0
  0
INSERT
  8
1
  6
CONTINUOUS
  2
BLKF046
 10
-132.210992
 20
-110.59168
 30
0.0
  0
INSERT
  8
1
  6
CONTINUOUS
  2
BLKF047
 10
-132.210992
 20
-110.59168
 30
0.0
  0
INSERT
  8
1
  6
CONTINUOUS
  2
BLKF048
 10
-132.210992
 20
-110.59168
 30
0.0
  0
INSERT
  8
1
  6
CONTINUOUS
  2
BLKF049
 10
-132.210992
 20
-110.59168
 30
0.0
  0
INSERT
  8
1
  6
CONTINUOUS
  2
BLKF050
 10
-132.210992
 20
-110.59168
 30
0.0
  0
INSERT
  8
1
  6
CONTINUOUS
  2
BLKF051
 10
-132.210992
 20
-110.59168
 30
0.0
  0
INSERT
  8
1
  6
CONTINUOUS
  2
BLKF052
 10
-132.210992
 20
-110.59168
 30
0.0
  0
INSERT
  8
1
  6
CONTINUOUS
  2
BLKF053
 10
-132.210992
 20
-110.59168
 30
0.0
  0
INSERT
  8
1
  6
CONTINUOUS
  2
BLKF054
 10
-132.210992
 20
-110.59168
 30
0.0
  0
LINE
  8
1
  6
CONTINUOUS
 62
3
 10
244.906523
 20
76.0785
 11
244.906523
 21
63.9215
  0
LINE
  8
1
  6
CONTINUOUS
 62
4
 10
244.406523
 20
76.5785
 11
244.406523
 21
63.4215
  0
LINE
  8
1
  6
CONTINUOUS
 62
3
 10
234.906523
 20
63.4215
 11
244.406523
 21
63.4215
  0
LINE
  8
1
  6
CONTINUOUS
 62
4
 10
234.906523
 20
64.2775
 11
244.906523
 21
64.2775
  0
LINE
  8
1
  6
CONTINUOUS
 62
3
 10
244.406523
 20
63.4215
 11
244.906523
 21
63.9215
  0
LINE
  8
1
  6
CONTINUOUS
 62
3
 10
234.906523
 20
76.5785
 11
244.406523
 21
76.5785
  0
LINE
  8
1
  6
CONTINUOUS
 62
4
 10
234.906523
 20
75.7225
 11
244.906523
 21
75.7225
  0
LINE
  8
1
  6
CONTINUOUS
 62
3
 10
244.406523
 20
76.5785
 11
244.906523
 21
76.0785
  0
LINE
  8
1
  6
CONTINUOUS
 62
4
 10
210.906523
 20
63.99625
 11
207.906523
 21
64.09
  0
LINE
  8
1
  6
CONTINUOUS
 62
3
 10
210.906523
 20
63.14025
 11
207.906523
 21
63.234
  0
LINE
  8
1
  6
CONTINUOUS
 62
4
 10
210.842007
 20
63.142266
 11
209.993456
 21
63.990816
  0
LINE
  8
1
  6
CONTINUOUS
 62
4
 10
210.02291
 20
70
 11
210.02291
 21
64.023862
  0
LINE
  8
1
  6
CONTINUOUS
 62
4
 10
210.906523
 20
76.00375
 11
207.906523
 21
75.91
  0
LINE
  8
1
  6
CONTINUOUS
 62
3
 10
210.906523
 20
76.85975
 11
207.906523
 21
76.766
  0
LINE
  8
1
  6
CONTINUOUS
 62
4
 10
210.842007
 20
76.857733
 11
209.993456
 21
76.009183
  0
LINE
  8
1
  6
CONTINUOUS
 62
4
 10
210.02291
 20
70
 11
210.02291
 21
75.976137
  0
LINE
  8
1
  6
CONTINUOUS
 62
3
 10
234.906523
 20
78
 11
234.906523
 21
62
  0
LINE
  8
1
  6
CONTINUOUS
 62
3
 10
210.906523
 20
76.85975
 11
210.906523
 21
63.142266
  0
LINE
  8
1
  6
CONTINUOUS
 62
3
 10
231.906523
 20
79.85
 11
231.906523
 21
60.15
  0
LINE
  8
1
  6
CONTINUOUS
 62
3
 10
231.906523
 20
62
 11
234.906523
 21
62
  0
LINE
  8
1
  6
CONTINUOUS
 62
3
 10
229.406523
 20
60.15
 11
231.906523
 21
60.15
  0
LINE
  8
1
  6
CONTINUOUS
 62
3
 10
229.406523
 20
79.85
 11
229.406523
 21
60.15
  0
LINE
  8
1
  6
CONTINUOUS
 62
3
 10
227.706523
 20
79.85
 11
231.906523
 21
79.85
  0
LINE
  8
1
  6
CONTINUOUS
 62
3
 10
231.906523
 20
78
 11
234.906523
 21
78
  0
LINE
  8
1
  6
CONTINUOUS
 62
3
 10
214.406523
 20
61.5
 11
229.406523
 21
61.5
  0
LINE
  8
1
  6
CONTINUOUS
 62
3
 10
211.906523
 20
79.85
 11
211.906523
 21
60.15
  0
LINE
  8
1
  6
CONTINUOUS
 62
3
 10
214.406523
 20
79.85
 11
214.406523
 21
60.15
  0
LINE
  8
1
  6
CONTINUOUS
 62
3
 10
214.406523
 20
60.15
 11
211.906523
 21
60.15
  0
LINE
  8
1
  6
CONTINUOUS
 62
3
 10
216.106523
 20
79.85
 11
211.906523
 21
79.85
  0
LINE
  8
1
  6
CONTINUOUS
 62
3
 10
210.906523
 20
63.142266
 11
211.906523
 21
63.142266
  0
LINE
  8
1
  6
CONTINUOUS
 62
3
 10
210.906523
 20
76.857733
 11
211.906523
 21
76.857733
  0
LINE
  8
1
  6
CONTINUOUS
 62
3
 10
216.406523
 20
97
 11
227.406523
 21
97
  0
LINE
  8
1
  6
CONTINUOUS
 62
3
 10
227.706523
 20
81
 11
227.706523
 21
78.5
  0
LINE
  8
1
  6
CONTINUOUS
 62
3
 10
227.706523
 20
78.5
 11
229.406523
 21
78.5
  0
LINE
  8
1
  6
CONTINUOUS
 62
3
 10
216.106523
 20
81
 11
216.106523
 21
78.5
  0
ARC
  8
1
  6
CONTINUOUS
 62
3
 10
221.906523
 20
84.713694
 40
8.5
 50
226.972215
 51
313.027785
  0
LINE
  8
1
  6
CONTINUOUS
 62
3
 10
214.656523
 20
81
 11
229.156523
 21
81
  0
LINE
  8
1
  6
CONTINUOUS
 62
3
 10
214.656523
 20
89
 11
214.656523
 21
81
  0
LINE
  8
1
  6
CONTINUOUS
 62
3
 10
214.656523
 20
89
 11
241.456523
 21
89
  0
LINE
  8
1
  6
CONTINUOUS
 62
3
 10
216.406523
 20
97
 11
214.656523
 21
89
  0
LINE
  8
1
  6
CONTINUOUS
 62
3
 10
227.406523
 20
97
 11
229.156523
 21
89
  0
LINE
  8
1
  6
CONTINUOUS
 62
3
 10
261.956523
 20
98.5
 11
261.956523
 21
94
  0
LINE
  8
1
  6
CONTINUOUS
 62
3
 10
241.956523
 20
98.5
 11
261.956523
 21
98.5
  0
LINE
  8
1
  6
CONTINUOUS
 62
3
 10
248.620772
 20
88
 11
255.956523
 21
88
  0
ARC
  8
1
  6
CONTINUOUS
 62
3
 10
237.011209
 20
105
 40
12.5
 50
219.791819
 51
270
  0
ARC
  8
1
  6
CONTINUOUS
 62
3
 10
235.957248
 20
98.406705
 40
6
 50
-79.882922
 51
0.890936
  0
ARC
  8
1
  6
CONTINUOUS
 62
3
 10
231.156523
 20
81
 40
2
 50
121.952746
 51
180
  0
ARC
  8
1
  6
CONTINUOUS
 62
3
 10
248.620772
 20
53
 40
35
 50
90
 51
121.952746
  0
ARC
  8
1
  6
CONTINUOUS
 62
3
 10
255.956523
 20
94
 40
6
 50
270
 51
360
  0
LINE
  8
1
  6
CONTINUOUS
 62
3
 10
245.506523
 20
131.808412
 11
245.506523
 21
129.379912
  0
LINE
  8
1
  6
CONTINUOUS
 62
4
 10
245.006523
 20
131.808412
 11
245.006523
 21
128.879912
  0
LINE
  8
1
  6
CONTINUOUS
 62
3
 10
235.506523
 20
128.879912
 11
245.006523
 21
128.879912
  0
LINE
  8
1
  6
CONTINUOUS
 62
4
 10
235.506523
 20
129.735912
 11
245.506523
 21
129.735912
  0
LINE
  8
1
  6
CONTINUOUS
 62
3
 10
245.006523
 20
128.879912
 11
245.506523
 21
129.379912
  0
LINE
  8
1
  6
CONTINUOUS
 62
3
 10
235.506523
 20
142.036912
 11
245.006523
 21
142.036912
  0
LINE
  8
1
  6
CONTINUOUS
 62
4
 10
235.506523
 20
141.180912
 11
245.506523
 21
141.180912
  0
LINE
  8
1
  6
CONTINUOUS
 62
3
 10
245.006523
 20
142.036912
 11
245.506523
 21
141.536912
  0
LINE
  8
1
  6
CONTINUOUS
 62
4
 10
211.506523
 20
129.454662
 11
208.506523
 21
129.548412
  0
LINE
  8
1
  6
CONTINUOUS
 62
3
 10
211.506523
 20
128.598662
 11
208.506523
 21
128.692412
  0
LINE
  8
1
  6
CONTINUOUS
 62
4
 10
211.442007
 20
128.600678
 11
210.593456
 21
129.449228
  0
LINE
  8
1
  6
CONTINUOUS
 62
4
 10
210.62291
 20
135.458412
 11
210.62291
 21
129.482275
  0
LINE
  8
1
  6
CONTINUOUS
 62
4
 10
211.506523
 20
141.462162
 11
208.506523
 21
141.368412
  0
LINE
  8
1
  6
CONTINUOUS
 62
3
 10
211.506523
 20
142.318162
 11
208.506523
 21
142.224412
  0
LINE
  8
1
  6
CONTINUOUS
 62
4
 10
211.442007
 20
142.316146
 11
210.593456
 21
141.467595
  0
LINE
  8
1
  6
CONTINUOUS
 62
4
 10
210.62291
 20
135.458412
 11
210.62291
 21
141.434549
  0
LINE
  8
1
  6
CONTINUOUS
 62
3
 10
235.506523
 20
143.458412
 11
235.506523
 21
139.266862
  0
LINE
  8
1
  6
CONTINUOUS
 62
3
 10
211.506523
 20
142.318162
 11
211.506523
 21
128.600678
  0
LINE
  8
1
  6
CONTINUOUS
 62
3
 10
232.506523
 20
145.308412
 11
232.506523
 21
139.77213
  0
LINE
  8
1
  6
CONTINUOUS
 62
3
 10
232.506523
 20
127.458412
 11
235.506523
 21
127.458412
  0
LINE
  8
1
  6
CONTINUOUS
 62
3
 10
230.006523
 20
125.608412
 11
232.506523
 21
125.608412
  0
LINE
  8
1
  6
CONTINUOUS
 62
3
 10
230.006523
 20
145.308412
 11
230.006523
 21
140.402963
  0
LINE
  8
1
  6
CONTINUOUS
 62
3
 10
230.006523
 20
145.308412
 11
232.506523
 21
145.308412
  0
LINE
  8
1
  6
CONTINUOUS
 62
3
 10
232.506523
 20
143.458412
 11
235.506523
 21
143.458412
  0
LINE
  8
1
  6
CONTINUOUS
 62
3
 10
215.006523
 20
126.958412
 11
230.006523
 21
126.958412
  0
LINE
  8
1
  6
CONTINUOUS
 62
3
 10
212.506523
 20
145.308412
 11
212.506523
 21
144.38752
  0
LINE
  8
1
  6
CONTINUOUS
 62
3
 10
215.006523
 20
145.308412
 11
215.006523
 21
143.221751
  0
LINE
  8
1
  6
CONTINUOUS
 62
3
 10
215.006523
 20
125.608412
 11
212.506523
 21
125.608412
  0
LINE
  8
1
  6
CONTINUOUS
 62
3
 10
215.006523
 20
145.308412
 11
212.506523
 21
145.308412
  0
LINE
  8
1
  6
CONTINUOUS
 62
3
 10
211.506523
 20
128.600678
 11
212.506523
 21
128.600678
  0
LINE
  8
1
  6
CONTINUOUS
 62
3
 10
211.506523
 20
142.316146
 11
212.506523
 21
142.316146
  0
LINE
  8
1
  6
CONTINUOUS
 62
3
 10
215.006523
 20
143.758412
 11
230.006523
 21
143.758412
  0
ARC
  8
1
  6
CONTINUOUS
 62
3
 10
222.506523
 20
135.458412
 40
7.25
 50
136.045537
 51
223.954463
  0
ARC
  8
1
  6
CONTINUOUS
 62
3
 10
222.506523
 20
135.458412
 40
5.5
 50
135.285107
 51
224.714893
  0
LINE
  8
1
  6
CONTINUOUS
 62
3
 10
217.656523
 20
135.958412
 11
219.987921
 21
135.958412
  0
LINE
  8
1
  6
CONTINUOUS
 62
3
 10
227.356523
 20
135.958412
 11
227.356523
 21
134.958412
  0
LINE
  8
1
  6
CONTINUOUS
 62
3
 10
217.656523
 20
134.958412
 11
219.987921
 21
134.958412
  0
LINE
  8
1
  6
CONTINUOUS
 62
3
 10
217.656523
 20
135.958412
 11
217.656523
 21
134.958412
  0
LINE
  8
1
  6
CONTINUOUS
 62
3
 10
262.556523
 20
131.808412
 11
262.556523
 21
139.108412
  0
LINE
  8
1
  6
CONTINUOUS
 62
3
 10
242.556523
 20
139.108412
 11
262.556523
 21
139.108412
  0
LINE
  8
1
  6
CONTINUOUS
 62
3
 10
242.556523
 20
131.808412
 11
262.556523
 21
131.808412
  0
LINE
  8
1
  6
CONTINUOUS
 62
3
 10
242.556523
 20
131.808412
 11
242.556523
 21
139.108412
  0
LINE
  8
1
  6
CONTINUOUS
 62
3
 10
229.599653
 20
136.958412
 11
242.556523
 21
139.108412
  0
ARC
  8
1
  6
CONTINUOUS
 62
3
 10
239.813957
 20
174.000794
 40
35
 50
245.817564
 51
274.494249
  0
LINE
  8
1
  6
CONTINUOUS
 62
3
 10
229.599653
 20
133.958412
 11
242.556523
 21
131.808412
  0
ARC
  8
1
  6
CONTINUOUS
 62
3
 10
239.813957
 20
96.91603
 40
35
 50
85.505751
 51
114.182436
  0
LINE
  8
1
  6
CONTINUOUS
 62
3
 10
230.006523
 20
130.51386
 11
230.006523
 21
125.608412
  0
LINE
  8
1
  6
CONTINUOUS
 62
3
 10
232.506523
 20
131.144693
 11
232.506523
 21
125.608412
  0
LINE
  8
1
  6
CONTINUOUS
 62
3
 10
235.506523
 20
131.649961
 11
235.506523
 21
127.458412
  0
LINE
  8
1
  6
CONTINUOUS
 62
3
 10
245.506523
 20
139.108412
 11
245.506523
 21
141.536912
  0
LINE
  8
1
  6
CONTINUOUS
 62
4
 10
245.006523
 20
139.108412
 11
245.006523
 21
142.036912
  0
LINE
  8
1
  6
CONTINUOUS
 62
3
 10
207.715759
 20
146.62149
 11
217.36299
 21
142.122912
  0
LINE
  8
1
  6
CONTINUOUS
 62
3
 10
207.715759
 20
145.02149
 11
216.536894
 21
140.908127
  0
LINE
  8
1
  6
CONTINUOUS
 62
3
 10
207.715759
 20
124.295334
 11
217.36299
 21
128.793912
  0
LINE
  8
1
  6
CONTINUOUS
 62
3
 10
207.715759
 20
125.895334
 11
216.536894
 21
130.008697
  0
ARC
  8
1
  6
CONTINUOUS
 62
3
 10
214.255283
 20
135.458412
 40
7.353462
 50
-65
 51
65
  0
ARC
  8
1
  6
CONTINUOUS
 62
3
 10
213.99565
 20
135.458412
 40
6.013095
 50
-65
 51
65
  0
ARC
  8
1
  6
CONTINUOUS
 62
3
 10
203.489576
 20
137.558412
 40
10
 50
65
 51
90
  0
ARC
  8
1
  6
CONTINUOUS
 62
3
 10
203.489576
 20
135.958412
 40
10
 50
65
 51
90
  0
ARC
  8
1
  6
CONTINUOUS
 62
3
 10
203.489576
 20
134.958412
 40
10
 50
270
 51
295
  0
ARC
  8
1
  6
CONTINUOUS
 62
3
 10
203.489576
 20
133.358412
 40
10
 50
270
 51
295
  0
LINE
  8
1
  6
CONTINUOUS
 62
3
 10
212.506523
 20
142.78752
 11
212.506523
 21
128.129304
  0
LINE
  8
1
  6
CONTINUOUS
 62
3
 10
215.006523
 20
141.621751
 11
215.006523
 21
129.295073
  0
LINE
  8
1
  6
CONTINUOUS
 62
3
 10
221.591727
 20
135.958412
 11
227.356523
 21
135.958412
  0
LINE
  8
1
  6
CONTINUOUS
 62
3
 10
221.591727
 20
134.958412
 11
227.356523
 21
134.958412
  0
ARC
  8
1
  6
CONTINUOUS
 62
3
 10
222.506523
 20
135.458412
 40
5.5
 50
-119.185276
 51
119.185276
  0
ARC
  8
1
  6
CONTINUOUS
 62
3
 10
222.506523
 20
135.458412
 40
7.25
 50
-123.808755
 51
123.808755
  0
LINE
  8
1
  6
CONTINUOUS
 62
3
 10
215.006523
 20
127.695073
 11
215.006523
 21
125.608412
  0
LINE
  8
1
  6
CONTINUOUS
 62
3
 10
212.506523
 20
126.529304
 11
212.506523
 21
125.608412
  0
LINE
  8
1
  6
CONTINUOUS
 62
4
 10
233.749878
 20
45.69217
 11
253.796578
 21
45.69217
  0
TEXT
  8
1
 62
4
  6
CONTINUOUS
 62
4
 10
236.099304654701
 20
46.192163994141
 40
3.200000047684
  1
GT-N20
  7
Font_0
  0
ENDSEC
  0
EOF
