  0
SECTION
  2
HEADER
  9
$ACADVER
  1
AC1012
  9
$DWGCODEPAGE
  3
dos932
  9
$INSBASE
 10
0.0
 20
0.0
 30
0.0
  9
$EXTMIN
 10
19.98230080583869
 20
5.995651943604002
 30
-0.0000000349181948
  9
$EXTMAX
 10
790.0186171313034
 20
550.0001688327176
 30
0.0000000814935747
  9
$LIMMIN
 10
0.0
 20
0.0
  9
$LIMMAX
 10
420.0
 20
297.0
  9
$ORTHOMODE
 70
     0
  9
$REGENMODE
 70
     1
  9
$FILLMODE
 70
     1
  9
$QTEXTMODE
 70
     0
  9
$MIRRTEXT
 70
     1
  9
$DRAGMODE
 70
     2
  9
$LTSCALE
 40
15.0
  9
$OSMODE
 70
    37
  9
$ATTMODE
 70
     1
  9
$TEXTSIZE
 40
0.2
  9
$TRACEWID
 40
0.05
  9
$TEXTSTYLE
  7
GOTHIC
  9
$CLAYER
  8
CSLAYER1
  9
$CELTYPE
  6
BYLAYER
  9
$CECOLOR
 62
   256
  9
$CELTSCALE
 40
1.0
  9
$DELOBJ
 70
     1
  9
$DISPSILH
 70
     0
  9
$DIMSCALE
 40
1.0
  9
$DIMASZ
 40
0.18
  9
$DIMEXO
 40
0.0625
  9
$DIMDLI
 40
0.38
  9
$DIMRND
 40
0.0
  9
$DIMDLE
 40
0.0
  9
$DIMEXE
 40
0.18
  9
$DIMTP
 40
0.0
  9
$DIMTM
 40
0.0
  9
$DIMTXT
 40
0.18
  9
$DIMCEN
 40
0.09
  9
$DIMTSZ
 40
0.0
  9
$DIMTOL
 70
     0
  9
$DIMLIM
 70
     0
  9
$DIMTIH
 70
     1
  9
$DIMTOH
 70
     1
  9
$DIMSE1
 70
     0
  9
$DIMSE2
 70
     0
  9
$DIMTAD
 70
     0
  9
$DIMZIN
 70
     0
  9
$DIMBLK
  1

  9
$DIMASO
 70
     1
  9
$DIMSHO
 70
     1
  9
$DIMPOST
  1

  9
$DIMAPOST
  1

  9
$DIMALT
 70
     0
  9
$DIMALTD
 70
     2
  9
$DIMALTF
 40
25.4
  9
$DIMLFAC
 40
1.0
  9
$DIMTOFL
 70
     0
  9
$DIMTVP
 40
0.0
  9
$DIMTIX
 70
     0
  9
$DIMSOXD
 70
     0
  9
$DIMSAH
 70
     0
  9
$DIMBLK1
  1

  9
$DIMBLK2
  1

  9
$DIMSTYLE
  2
STANDARD
  9
$DIMCLRD
 70
     0
  9
$DIMCLRE
 70
     0
  9
$DIMCLRT
 70
     0
  9
$DIMTFAC
 40
1.0
  9
$DIMGAP
 40
0.09
  9
$DIMJUST
 70
     0
  9
$DIMSD1
 70
     0
  9
$DIMSD2
 70
     0
  9
$DIMTOLJ
 70
     1
  9
$DIMTZIN
 70
     0
  9
$DIMALTZ
 70
     0
  9
$DIMALTTZ
 70
     0
  9
$DIMFIT
 70
     3
  9
$DIMUPT
 70
     0
  9
$DIMUNIT
 70
     2
  9
$DIMDEC
 70
     4
  9
$DIMTDEC
 70
     4
  9
$DIMALTU
 70
     2
  9
$DIMALTTD
 70
     2
  9
$DIMTXSTY
  7
STANDARD
  9
$DIMAUNIT
 70
     0
  9
$LUNITS
 70
     2
  9
$LUPREC
 70
     4
  9
$SKETCHINC
 40
0.1
  9
$FILLETRAD
 40
0.0
  9
$AUNITS
 70
     0
  9
$AUPREC
 70
     0
  9
$MENU
  1
ACAD
  9
$ELEVATION
 40
0.0
  9
$PELEVATION
 40
0.0
  9
$THICKNESS
 40
0.0
  9
$LIMCHECK
 70
     0
  9
$BLIPMODE
 70
     1
  9
$CHAMFERA
 40
0.0
  9
$CHAMFERB
 40
0.0
  9
$CHAMFERC
 40
0.0
  9
$CHAMFERD
 40
0.0
  9
$SKPOLY
 70
     0
  9
$TDCREATE
 40
2453483.000000000
  9
$TDUPDATE
 40
2453575.462214398
  9
$TDINDWG
 40
0.0026821991
  9
$TDUSRTIMER
 40
0.0026819676
  9
$USRTIMER
 70
     1
  9
$ANGBASE
 50
0.0
  9
$ANGDIR
 70
     0
  9
$PDMODE
 70
     0
  9
$PDSIZE
 40
0.0
  9
$PLINEWID
 40
0.0
  9
$COORDS
 70
     0
  9
$SPLFRAME
 70
     0
  9
$SPLINETYPE
 70
     6
  9
$SPLINESEGS
 70
     8
  9
$ATTDIA
 70
     0
  9
$ATTREQ
 70
     1
  9
$HANDLING
 70
 22529
  9
$HANDSEED
  5
792
  9
$SURFTAB1
 70
     6
  9
$SURFTAB2
 70
     6
  9
$SURFTYPE
 70
     6
  9
$SURFU
 70
     6
  9
$SURFV
 70
     6
  9
$UCSNAME
  2

  9
$UCSORG
 10
0.0
 20
0.0
 30
0.0
  9
$UCSXDIR
 10
1.0
 20
0.0
 30
0.0
  9
$UCSYDIR
 10
0.0
 20
1.0
 30
0.0
  9
$PUCSNAME
  2

  9
$PUCSORG
 10
0.0
 20
0.0
 30
0.0
  9
$PUCSXDIR
 10
1.0
 20
0.0
 30
0.0
  9
$PUCSYDIR
 10
0.0
 20
1.0
 30
0.0
  9
$USERI1
 70
     0
  9
$USERI2
 70
     0
  9
$USERI3
 70
     0
  9
$USERI4
 70
     0
  9
$USERI5
 70
     0
  9
$USERR1
 40
0.0
  9
$USERR2
 40
0.0
  9
$USERR3
 40
0.0
  9
$USERR4
 40
0.0
  9
$USERR5
 40
0.0
  9
$WORLDVIEW
 70
     1
  9
$SHADEDGE
 70
     3
  9
$SHADEDIF
 70
    70
  9
$TILEMODE
 70
     1
  9
$MAXACTVP
 70
    64
  9
$PINSBASE
 10
0.0
 20
0.0
 30
0.0
  9
$PLIMCHECK
 70
     0
  9
$PEXTMIN
 10
1.000000000000000E+20
 20
1.000000000000000E+20
 30
1.000000000000000E+20
  9
$PEXTMAX
 10
-1.000000000000000E+20
 20
-1.000000000000000E+20
 30
-1.000000000000000E+20
  9
$PLIMMIN
 10
0.0
 20
0.0
  9
$PLIMMAX
 10
12.0
 20
9.0
  9
$UNITMODE
 70
     0
  9
$VISRETAIN
 70
     1
  9
$PLINEGEN
 70
     0
  9
$PSLTSCALE
 70
     1
  9
$TREEDEPTH
 70
  3020
  9
$PICKSTYLE
 70
     3
  9
$CMLSTYLE
  2
STANDARD
  9
$CMLJUST
 70
     0
  9
$CMLSCALE
 40
1.0
  9
$SAVEIMAGES
 70
     1
  0
ENDSEC
  0
SECTION
  2
CLASSES
  0
CLASS
  1
ACDBDICTIONARYWDFLT
  2
AcDbDictionaryWithDefault
  3
AutoCAD 2000
 90
    32768
280
     0
281
     0
  0
CLASS
  1
ACDBPLACEHOLDER
  2
AcDbPlaceHolder
  3
AutoCAD 2000
 90
    32768
280
     0
281
     0
  0
CLASS
  1
LAYOUT
  2
AcDbLayout
  3
AutoCAD 2000
 90
    32768
280
     0
281
     0
  0
CLASS
  1
DICTIONARYVAR
  2
AcDbDictionaryVar
  3
AutoCAD 2000
 90
    32768
280
     0
281
     0
  0
CLASS
  1
LONG_TRANSACTION
  2
AcDbLongTransaction
  3
AutoCAD 2000
 90
    32768
280
     0
281
     0
  0
CLASS
  1
LWPOLYLINE
  2
AcDbPolyline
  3
AutoCAD 2000
 90
    32768
280
     0
281
     1
  0
CLASS
  1
HATCH
  2
AcDbHatch
  3
AutoCAD 2000
 90
    32768
280
     0
281
     1
  0
CLASS
  1
XRECORD
  2
AcDbXrecord
  3
AutoCAD 2000
 90
    32768
280
     0
281
     0
  0
CLASS
  1
LONG_TRANSACTION
  2
AcDbLongTransaction
  3
AutoCAD 2000
 90
    32768
280
     0
281
     0
  0
CLASS
  1
LWPOLYLINE
  2
AcDbPolyline
  3
AutoCAD 2000
 90
    32768
280
     0
281
     1
  0
CLASS
  1
HATCH
  2
AcDbHatch
  3
AutoCAD 2000
 90
    32768
280
     0
281
     1
  0
CLASS
  1
XRECORD
  2
AcDbXrecord
  3
AutoCAD 2000
 90
    32768
280
     0
281
     0
  0
CLASS
  1
LONG_TRANSACTION
  2
AcDbLongTransaction
  3
AutoCAD 2000
 90
    32768
280
     0
281
     0
  0
CLASS
  1
LWPOLYLINE
  2
AcDbPolyline
  3
AutoCAD 2000
 90
    32768
280
     0
281
     1
  0
CLASS
  1
HATCH
  2
AcDbHatch
  3
AutoCAD 2000
 90
    32768
280
     0
281
     1
  0
CLASS
  1
XRECORD
  2
AcDbXrecord
  3
AutoCAD 2000
 90
    32768
280
     0
281
     0
  0
ENDSEC
  0
SECTION
  2
TABLES
  0
TABLE
  2
VPORT
  5
8
330
0
100
AcDbSymbolTable
 70
     2
  0
VPORT
  5
78F
330
8
100
AcDbSymbolTableRecord
100
AcDbViewportTableRecord
  2
*ACTIVE
 70
     0
 10
0.0
 20
0.0
 11
1.0
 21
1.0
 12
405.0004589685711
 22
277.9979103881609
 13
0.0
 23
0.0
 14
1.0
 24
1.0
 15
0.0
 25
0.0
 16
0.0
 26
0.0
 36
1.0
 17
0.0
 27
0.0
 37
0.0
 40
547.9513453066889
 41
1.458837772397094
 42
50.0
 43
0.0
 44
0.0
 50
0.0
 51
0.0
 71
     0
 72
   100
 73
     1
 74
     1
 75
     0
 76
     0
 77
     0
 78
     0
  0
ENDTAB
  0
TABLE
  2
LTYPE
  5
5
330
0
100
AcDbSymbolTable
 70
     4
  0
LTYPE
  5
13
330
5
100
AcDbSymbolTableRecord
100
AcDbLinetypeTableRecord
  2
BYBLOCK
 70
     0
  3

 72
    65
 73
     0
 40
0.0
  0
LTYPE
  5
14
330
5
100
AcDbSymbolTableRecord
100
AcDbLinetypeTableRecord
  2
BYLAYER
 70
     0
  3

 72
    65
 73
     0
 40
0.0
  0
LTYPE
  5
15
330
5
100
AcDbSymbolTableRecord
100
AcDbLinetypeTableRecord
  2
CONTINUOUS
 70
     0
  3
Solid line
 72
    65
 73
     0
 40
0.0
  0
LTYPE
  5
23
330
5
100
AcDbSymbolTableRecord
100
AcDbLinetypeTableRecord
  2
DASHED
 70
     0
  3
__ __ __ __ __ __ __ __ __ __ __ __ __ __ __
 72
    65
 73
     2
 40
0.75
 49
0.5
 74
     0
 49
-0.25
 74
     0
  0
LTYPE
  5
25
330
5
100
AcDbSymbolTableRecord
100
AcDbLinetypeTableRecord
  2
DOT
 70
     0
  3
...............................................
 72
    65
 73
     2
 40
0.25
 49
0.0
 74
     0
 49
-0.25
 74
     0
  0
LTYPE
  5
28
330
5
100
AcDbSymbolTableRecord
100
AcDbLinetypeTableRecord
  2
CENTER
 70
     0
  3
____ _ ____ _ ____ _ ____ _ ____ _ ____ _ ____ 
 72
    65
 73
     4
 40
2.0
 49
1.25
 74
     0
 49
-0.25
 74
     0
 49
0.25
 74
     0
 49
-0.25
 74
     0
  0
ENDTAB
  0
TABLE
  2
LAYER
  5
2
330
0
100
AcDbSymbolTable
 70
     3
  0
LAYER
  5
10
330
2
100
AcDbSymbolTableRecord
100
AcDbLayerTableRecord
  2
0
 70
     0
 62
     7
  6
CONTINUOUS
  0
LAYER
  5
22
330
2
100
AcDbSymbolTableRecord
100
AcDbLayerTableRecord
  2
CSLAYER1
 70
     0
 62
     7
  6
CONTINUOUS
  0
LAYER
  5
63A
330
2
100
AcDbSymbolTableRecord
100
AcDbLayerTableRecord
  2
DEFPOINTS
 70
     0
 62
     7
  6
CONTINUOUS
  0
ENDTAB
  0
TABLE
  2
STYLE
  5
3
330
0
100
AcDbSymbolTable
 70
     3
  0
STYLE
  5
11
330
3
100
AcDbSymbolTableRecord
100
AcDbTextStyleTableRecord
  2
STANDARD
 70
     0
 40
0.0
 41
1.0
 50
0.0
 71
     0
 42
0.2
  3
txt
  4
extfont.shx
  0
STYLE
  5
3A
330
3
100
AcDbSymbolTableRecord
100
AcDbTextStyleTableRecord
  2
FX_FONT
 70
     0
 40
1.0
 41
1.0
 50
0.0
 71
     0
 42
1.0
  3
monotxt
  4
bigfont
  0
STYLE
  5
632
330
3
100
AcDbSymbolTableRecord
100
AcDbTextStyleTableRecord
  2
GOTHIC
 70
     0
 40
0.0
 41
1.0
 50
0.0
 71
     0
 42
0.2
  3
txt.shx
  4
extfont.shx
  0
ENDTAB
  0
TABLE
  2
VIEW
  5
6
330
0
100
AcDbSymbolTable
 70
     0
  0
ENDTAB
  0
TABLE
  2
UCS
  5
7
330
0
100
AcDbSymbolTable
 70
     0
  0
ENDTAB
  0
TABLE
  2
APPID
  5
9
330
0
100
AcDbSymbolTable
 70
     1
  0
APPID
  5
12
330
9
100
AcDbSymbolTableRecord
100
AcDbRegAppTableRecord
  2
ACAD
 70
     0
  0
ENDTAB
  0
TABLE
  2
DIMSTYLE
  5
A
330
0
100
AcDbSymbolTable
 70
     1
  0
DIMSTYLE
105
62F
330
A
100
AcDbSymbolTableRecord
100
AcDbDimStyleTableRecord
  2
STANDARD
 70
     0
  3

  4

  5

  6

  7

 40
1.0
 41
0.18
 42
0.0625
 43
0.38
 44
0.18
 45
0.0
 46
0.0
 47
0.0
 48
0.0
140
0.18
141
0.09
142
0.0
143
25.4
144
1.0
145
0.0
146
1.0
147
0.09
 71
     0
 72
     0
 73
     1
 74
     1
 75
     0
 76
     0
 77
     0
 78
     0
170
     0
171
     2
172
     0
173
     0
174
     0
175
     0
176
     0
177
     0
178
     0
270
     2
271
     4
272
     4
273
     2
274
     2
340
11
275
     0
280
     0
281
     0
282
     0
283
     1
284
     0
285
     0
286
     0
287
     3
288
     0
  0
ENDTAB
  0
TABLE
  2
BLOCK_RECORD
  5
1
330
0
100
AcDbSymbolTable
 70
    59
  0
BLOCK_RECORD
  5
1E
102
{ACAD_XDICTIONARY
360
638
102
}
330
1
100
AcDbSymbolTableRecord
100
AcDbBlockTableRecord
  2
*MODEL_SPACE
  0
BLOCK_RECORD
  5
1A
102
{ACAD_XDICTIONARY
360
636
102
}
330
1
100
AcDbSymbolTableRecord
100
AcDbBlockTableRecord
  2
*PAPER_SPACE
  0
BLOCK_RECORD
  5
3F
330
1
100
AcDbSymbolTableRecord
100
AcDbBlockTableRecord
  2
*D0
  0
BLOCK_RECORD
  5
4C
330
1
100
AcDbSymbolTableRecord
100
AcDbBlockTableRecord
  2
*D1
  0
BLOCK_RECORD
  5
59
330
1
100
AcDbSymbolTableRecord
100
AcDbBlockTableRecord
  2
*D2
  0
BLOCK_RECORD
  5
64
330
1
100
AcDbSymbolTableRecord
100
AcDbBlockTableRecord
  2
*D3
  0
BLOCK_RECORD
  5
6F
330
1
100
AcDbSymbolTableRecord
100
AcDbBlockTableRecord
  2
*D4
  0
BLOCK_RECORD
  5
7A
330
1
100
AcDbSymbolTableRecord
100
AcDbBlockTableRecord
  2
*D5
  0
BLOCK_RECORD
  5
87
330
1
100
AcDbSymbolTableRecord
100
AcDbBlockTableRecord
  2
FXDIM0000
  0
BLOCK_RECORD
  5
8B
330
1
100
AcDbSymbolTableRecord
100
AcDbBlockTableRecord
  2
*D7
  0
BLOCK_RECORD
  5
95
330
1
100
AcDbSymbolTableRecord
100
AcDbBlockTableRecord
  2
*D8
  0
BLOCK_RECORD
  5
A1
330
1
100
AcDbSymbolTableRecord
100
AcDbBlockTableRecord
  2
*D9
  0
BLOCK_RECORD
  5
AC
330
1
100
AcDbSymbolTableRecord
100
AcDbBlockTableRecord
  2
*D10
  0
BLOCK_RECORD
  5
B6
330
1
100
AcDbSymbolTableRecord
100
AcDbBlockTableRecord
  2
*D11
  0
BLOCK_RECORD
  5
BE
330
1
100
AcDbSymbolTableRecord
100
AcDbBlockTableRecord
  2
*D12
  0
BLOCK_RECORD
  5
C4
330
1
100
AcDbSymbolTableRecord
100
AcDbBlockTableRecord
  2
*D13
  0
BLOCK_RECORD
  5
CE
330
1
100
AcDbSymbolTableRecord
100
AcDbBlockTableRecord
  2
*D14
  0
BLOCK_RECORD
  5
D9
330
1
100
AcDbSymbolTableRecord
100
AcDbBlockTableRecord
  2
*D15
  0
BLOCK_RECORD
  5
E3
330
1
100
AcDbSymbolTableRecord
100
AcDbBlockTableRecord
  2
FXDIM0001
  0
BLOCK_RECORD
  5
EB
330
1
100
AcDbSymbolTableRecord
100
AcDbBlockTableRecord
  2
*D17
  0
BLOCK_RECORD
  5
F6
330
1
100
AcDbSymbolTableRecord
100
AcDbBlockTableRecord
  2
FXDIM0002
  0
BLOCK_RECORD
  5
FC
330
1
100
AcDbSymbolTableRecord
100
AcDbBlockTableRecord
  2
*D19
  0
BLOCK_RECORD
  5
107
330
1
100
AcDbSymbolTableRecord
100
AcDbBlockTableRecord
  2
*D20
  0
BLOCK_RECORD
  5
112
330
1
100
AcDbSymbolTableRecord
100
AcDbBlockTableRecord
  2
*D21
  0
BLOCK_RECORD
  5
11C
330
1
100
AcDbSymbolTableRecord
100
AcDbBlockTableRecord
  2
*D22
  0
BLOCK_RECORD
  5
123
330
1
100
AcDbSymbolTableRecord
100
AcDbBlockTableRecord
  2
*D23
  0
BLOCK_RECORD
  5
12D
330
1
100
AcDbSymbolTableRecord
100
AcDbBlockTableRecord
  2
FXDIM0003
  0
BLOCK_RECORD
  5
135
330
1
100
AcDbSymbolTableRecord
100
AcDbBlockTableRecord
  2
*D25
  0
BLOCK_RECORD
  5
140
330
1
100
AcDbSymbolTableRecord
100
AcDbBlockTableRecord
  2
*D26
  0
BLOCK_RECORD
  5
14C
330
1
100
AcDbSymbolTableRecord
100
AcDbBlockTableRecord
  2
*D27
  0
BLOCK_RECORD
  5
157
330
1
100
AcDbSymbolTableRecord
100
AcDbBlockTableRecord
  2
*D28
  0
BLOCK_RECORD
  5
162
330
1
100
AcDbSymbolTableRecord
100
AcDbBlockTableRecord
  2
*D29
  0
BLOCK_RECORD
  5
16C
330
1
100
AcDbSymbolTableRecord
100
AcDbBlockTableRecord
  2
*D30
  0
BLOCK_RECORD
  5
176
330
1
100
AcDbSymbolTableRecord
100
AcDbBlockTableRecord
  2
*D31
  0
BLOCK_RECORD
  5
17E
330
1
100
AcDbSymbolTableRecord
100
AcDbBlockTableRecord
  2
*D32
  0
BLOCK_RECORD
  5
188
330
1
100
AcDbSymbolTableRecord
100
AcDbBlockTableRecord
  2
*D33
  0
BLOCK_RECORD
  5
191
330
1
100
AcDbSymbolTableRecord
100
AcDbBlockTableRecord
  2
*D34
  0
BLOCK_RECORD
  5
19C
330
1
100
AcDbSymbolTableRecord
100
AcDbBlockTableRecord
  2
*D35
  0
BLOCK_RECORD
  5
1A5
330
1
100
AcDbSymbolTableRecord
100
AcDbBlockTableRecord
  2
*D36
  0
BLOCK_RECORD
  5
1AE
330
1
100
AcDbSymbolTableRecord
100
AcDbBlockTableRecord
  2
FXDIM0004
  0
BLOCK_RECORD
  5
1B6
330
1
100
AcDbSymbolTableRecord
100
AcDbBlockTableRecord
  2
*D38
  0
BLOCK_RECORD
  5
1C0
330
1
100
AcDbSymbolTableRecord
100
AcDbBlockTableRecord
  2
*D39
  0
BLOCK_RECORD
  5
1CB
330
1
100
AcDbSymbolTableRecord
100
AcDbBlockTableRecord
  2
*D40
  0
BLOCK_RECORD
  5
1D3
330
1
100
AcDbSymbolTableRecord
100
AcDbBlockTableRecord
  2
*D41
  0
BLOCK_RECORD
  5
1DB
330
1
100
AcDbSymbolTableRecord
100
AcDbBlockTableRecord
  2
*D42
  0
BLOCK_RECORD
  5
1E6
330
1
100
AcDbSymbolTableRecord
100
AcDbBlockTableRecord
  2
BLKF0000
  0
BLOCK_RECORD
  5
1F0
330
1
100
AcDbSymbolTableRecord
100
AcDbBlockTableRecord
  2
BLKF0001
  0
BLOCK_RECORD
  5
1FA
330
1
100
AcDbSymbolTableRecord
100
AcDbBlockTableRecord
  2
BLKF0002
  0
BLOCK_RECORD
  5
204
330
1
100
AcDbSymbolTableRecord
100
AcDbBlockTableRecord
  2
BLKF0003
  0
BLOCK_RECORD
  5
20E
330
1
100
AcDbSymbolTableRecord
100
AcDbBlockTableRecord
  2
BLKF0004
  0
BLOCK_RECORD
  5
218
330
1
100
AcDbSymbolTableRecord
100
AcDbBlockTableRecord
  2
BLKF0005
  0
BLOCK_RECORD
  5
222
330
1
100
AcDbSymbolTableRecord
100
AcDbBlockTableRecord
  2
BLKF0006
  0
BLOCK_RECORD
  5
22F
330
1
100
AcDbSymbolTableRecord
100
AcDbBlockTableRecord
  2
BLKF0007
  0
BLOCK_RECORD
  5
23D
330
1
100
AcDbSymbolTableRecord
100
AcDbBlockTableRecord
  2
BLKF0008
  0
BLOCK_RECORD
  5
255
330
1
100
AcDbSymbolTableRecord
100
AcDbBlockTableRecord
  2
BLKF0009
  0
BLOCK_RECORD
  5
25D
330
1
100
AcDbSymbolTableRecord
100
AcDbBlockTableRecord
  2
BLKF0010
  0
BLOCK_RECORD
  5
26B
330
1
100
AcDbSymbolTableRecord
100
AcDbBlockTableRecord
  2
BLKF0011
  0
BLOCK_RECORD
  5
289
330
1
100
AcDbSymbolTableRecord
100
AcDbBlockTableRecord
  2
BLKF0012
  0
BLOCK_RECORD
  5
63B
330
1
100
AcDbSymbolTableRecord
100
AcDbBlockTableRecord
  2
*D56
  0
BLOCK_RECORD
  5
64A
330
1
100
AcDbSymbolTableRecord
100
AcDbBlockTableRecord
  2
*D57
  0
BLOCK_RECORD
  5
659
330
1
100
AcDbSymbolTableRecord
100
AcDbBlockTableRecord
  2
*D58
  0
ENDTAB
  0
ENDSEC
  0
SECTION
  2
BLOCKS
  0
BLOCK
  5
1F
330
1E
100
AcDbEntity
  8
0
100
AcDbBlockBegin
  2
*MODEL_SPACE
 70
     0
 10
0.0
 20
0.0
 30
0.0
  3
*MODEL_SPACE
  1

  0
ENDBLK
  5
20
330
1E
100
AcDbEntity
  8
0
100
AcDbBlockEnd
  0
BLOCK
  5
1B
330
1A
100
AcDbEntity
 67
     1
  8
0
100
AcDbBlockBegin
  2
*PAPER_SPACE
 70
     0
 10
0.0
 20
0.0
 30
0.0
  3
*PAPER_SPACE
  1

  0
ENDBLK
  5
1C
330
1A
100
AcDbEntity
 67
     1
  8
0
100
AcDbBlockEnd
  0
BLOCK
  5
40
330
3F
100
AcDbEntity
  8
0
100
AcDbBlockBegin
  2
*D0
 70
     1
 10
0.0
 20
0.0
 30
0.0
  3
*D0
  1

  0
TEXT
  5
41
330
3F
100
AcDbEntity
  8
CSLAYER1
 62
     4
100
AcDbText
 10
35.823267
 20
178.859406
 30
0.0
 40
3.2
  1
0.15
 41
1.09090909090909
 51
15.0
  7
FX_FONT
 72
     5
 11
48.623267
 21
178.859406
 31
0.0
100
AcDbText
  0
LINE
  5
42
330
3F
100
AcDbEntity
  8
CSLAYER1
  6
CONTINUOUS
 62
     4
100
AcDbLine
 10
51.936207
 20
177.409704
 30
0.0
 11
52.311207
 21
177.409704
 31
0.0
  0
LINE
  5
43
330
3F
100
AcDbEntity
  8
CSLAYER1
  6
CONTINUOUS
 62
     4
100
AcDbLine
 10
52.311207
 20
182.14108
 30
0.0
 11
52.311207
 21
176.409704
 31
0.0
  0
LINE
  5
44
330
3F
100
AcDbEntity
  8
CSLAYER1
  6
CONTINUOUS
 62
     4
100
AcDbLine
 10
51.936207
 20
173.400172
 30
0.0
 11
51.936207
 21
178.4097039999999
 31
0.0
  0
LINE
  5
45
330
3F
100
AcDbEntity
  8
CSLAYER1
  6
CONTINUOUS
 62
     4
100
AcDbLine
 10
52.311207
 20
177.409704
 30
0.0
 11
58.31120699999999
 21
177.409704
 31
0.0
  0
LINE
  5
46
330
3F
100
AcDbEntity
  8
CSLAYER1
  6
CONTINUOUS
 62
     4
100
AcDbLine
 10
52.311207
 20
177.409704
 30
0.0
 11
55.208985
 21
178.1861609999999
 31
0.0
  0
LINE
  5
47
330
3F
100
AcDbEntity
  8
CSLAYER1
  6
CONTINUOUS
 62
     4
100
AcDbLine
 10
52.311207
 20
177.409704
 30
0.0
 11
55.208985
 21
176.6332469999999
 31
0.0
  0
LINE
  5
48
330
3F
100
AcDbEntity
  8
CSLAYER1
  6
CONTINUOUS
 62
     4
100
AcDbLine
 10
45.936207
 20
177.409704
 30
0.0
 11
51.936207
 21
177.409704
 31
0.0
  0
LINE
  5
49
330
3F
100
AcDbEntity
  8
CSLAYER1
  6
CONTINUOUS
 62
     4
100
AcDbLine
 10
51.936207
 20
177.409704
 30
0.0
 11
49.03843
 21
178.1861609999999
 31
0.0
  0
LINE
  5
4A
330
3F
100
AcDbEntity
  8
CSLAYER1
  6
CONTINUOUS
 62
     4
100
AcDbLine
 10
51.936207
 20
177.409704
 30
0.0
 11
49.03843
 21
176.6332469999999
 31
0.0
  0
ENDBLK
  5
4B
330
3F
100
AcDbEntity
  8
0
100
AcDbBlockEnd
  0
BLOCK
  5
4D
330
4C
100
AcDbEntity
  8
0
100
AcDbBlockBegin
  2
*D1
 70
     1
 10
0.0
 20
0.0
 30
0.0
  3
*D1
  1

  0
TEXT
  5
4E
330
4C
100
AcDbEntity
  8
CSLAYER1
 62
     4
100
AcDbText
 10
56.610431
 20
200.3063959999999
 30
0.0
 40
3.2
  1
0.5
 41
1.124999999999999
 51
15.0
  7
FX_FONT
 72
     5
 11
66.210431
 21
200.3063959999999
 31
0.0
100
AcDbText
  0
LINE
  5
4F
330
4C
100
AcDbEntity
  8
CSLAYER1
  6
CONTINUOUS
 62
     4
100
AcDbLine
 10
51.061207
 20
199.624189
 30
0.0
 11
52.311207
 21
199.624189
 31
0.0
  0
LINE
  5
50
330
4C
100
AcDbEntity
  8
CSLAYER1
  6
CONTINUOUS
 62
     4
100
AcDbLine
 10
52.311207
 20
196.3570889999999
 30
0.0
 11
52.311207
 21
200.624189
 31
0.0
  0
LINE
  5
51
330
4C
100
AcDbEntity
  8
CSLAYER1
  6
CONTINUOUS
 62
     4
100
AcDbLine
 10
51.061207
 20
184.14108
 30
0.0
 11
51.061207
 21
200.624189
 31
0.0
  0
LINE
  5
52
330
4C
100
AcDbEntity
  8
CSLAYER1
  6
CONTINUOUS
 62
     4
100
AcDbLine
 10
52.311207
 20
199.624189
 30
0.0
 11
58.31120699999999
 21
199.624189
 31
0.0
  0
LINE
  5
53
330
4C
100
AcDbEntity
  8
CSLAYER1
  6
CONTINUOUS
 62
     4
100
AcDbLine
 10
52.311207
 20
199.624189
 30
0.0
 11
55.208985
 21
200.4006459999999
 31
0.0
  0
LINE
  5
54
330
4C
100
AcDbEntity
  8
CSLAYER1
  6
CONTINUOUS
 62
     4
100
AcDbLine
 10
52.311207
 20
199.624189
 30
0.0
 11
55.208985
 21
198.847732
 31
0.0
  0
LINE
  5
55
330
4C
100
AcDbEntity
  8
CSLAYER1
  6
CONTINUOUS
 62
     4
100
AcDbLine
 10
45.061207
 20
199.624189
 30
0.0
 11
51.061207
 21
199.624189
 31
0.0
  0
LINE
  5
56
330
4C
100
AcDbEntity
  8
CSLAYER1
  6
CONTINUOUS
 62
     4
100
AcDbLine
 10
51.061207
 20
199.624189
 30
0.0
 11
48.16342999999999
 21
200.4006459999999
 31
0.0
  0
LINE
  5
57
330
4C
100
AcDbEntity
  8
CSLAYER1
  6
CONTINUOUS
 62
     4
100
AcDbLine
 10
51.061207
 20
199.624189
 30
0.0
 11
48.16342999999999
 21
198.847732
 31
0.0
  0
ENDBLK
  5
58
330
4C
100
AcDbEntity
  8
0
100
AcDbBlockEnd
  0
BLOCK
  5
5A
330
59
100
AcDbEntity
  8
0
100
AcDbBlockBegin
  2
*D2
 70
     1
 10
0.0
 20
0.0
 30
0.0
  3
*D2
  1

  0
TEXT
  5
5B
330
59
100
AcDbEntity
  8
CSLAYER1
 62
     4
100
AcDbText
 10
37.632352
 20
134.871644
 30
0.0
 40
3.2
  1
28%%d
 50
346.0000026291473
 41
1.285714412863413
 51
15.0
  7
FX_FONT
 72
     5
 11
46.947192
 21
132.549194
 31
0.0
100
AcDbText
  0
ARC
  5
5C
330
59
100
AcDbEntity
  8
CSLAYER1
  6
CONTINUOUS
 62
     4
100
AcDbCircle
 10
51.936207
 20
172.4001719999999
 30
0.0
 40
40.874182
100
AcDbArc
 50
242.0
 51
270.0
  0
LINE
  5
5D
330
59
100
AcDbEntity
  8
CSLAYER1
  6
CONTINUOUS
 62
     4
100
AcDbLine
 10
32.746941
 20
136.310411
 30
0.0
 11
35.670051
 21
135.635558
 31
0.0
  0
LINE
  5
5E
330
59
100
AcDbEntity
  8
CSLAYER1
  6
CONTINUOUS
 62
     4
100
AcDbLine
 10
32.746941
 20
136.310411
 30
0.0
 11
34.941002
 21
134.2644159999997
 31
0.0
  0
LINE
  5
5F
330
59
100
AcDbEntity
  8
CSLAYER1
  6
CONTINUOUS
 62
     4
100
AcDbLine
 10
51.936207
 20
131.5259889999997
 30
0.0
 11
49.03843
 21
132.302446
 31
0.0
  0
LINE
  5
60
330
59
100
AcDbEntity
  8
CSLAYER1
  6
CONTINUOUS
 62
     4
100
AcDbLine
 10
51.936207
 20
131.5259889999997
 30
0.0
 11
49.03843
 21
130.749532
 31
0.0
  0
LINE
  5
61
330
59
100
AcDbEntity
  8
CSLAYER1
  6
CONTINUOUS
 62
     4
100
AcDbLine
 10
51.936207
 20
152.3380139999999
 30
0.0
 11
51.936207
 21
130.5259889999997
 31
0.0
  0
LINE
  5
62
330
59
100
AcDbEntity
  8
CSLAYER1
  6
CONTINUOUS
 62
     4
100
AcDbLine
 10
48.808188
 20
166.5172239999999
 30
0.0
 11
32.277469
 21
135.4274629999999
 31
0.0
  0
ENDBLK
  5
63
330
59
100
AcDbEntity
  8
0
100
AcDbBlockEnd
  0
BLOCK
  5
65
330
64
100
AcDbEntity
  8
0
100
AcDbBlockBegin
  2
*D3
 70
     1
 10
0.0
 20
0.0
 30
0.0
  3
*D3
  1

  0
TEXT
  5
66
330
64
100
AcDbEntity
  8
CSLAYER1
 62
     4
100
AcDbText
 10
41.26979099999998
 20
141.8543239999999
 30
0.0
 40
3.2
  1
20%%d
 50
350.000002527225
 41
1.285714217384209
 51
15.0
  7
FX_FONT
 72
     5
 11
50.723945
 21
140.1873019999999
 31
0.0
100
AcDbText
  0
ARC
  5
67
330
64
100
AcDbEntity
  8
CSLAYER1
  6
CONTINUOUS
 62
     4
100
AcDbCircle
 10
51.936207
 20
174.70447
 30
0.0
 40
35.203285
100
AcDbArc
 50
250.0
 51
270.0
  0
LINE
  5
68
330
64
100
AcDbEntity
  8
CSLAYER1
  6
CONTINUOUS
 62
     4
100
AcDbLine
 10
39.895974
 20
141.624203
 30
0.0
 11
42.884559
 21
141.362736
 31
0.0
  0
LINE
  5
69
330
64
100
AcDbEntity
  8
CSLAYER1
  6
CONTINUOUS
 62
     4
100
AcDbLine
 10
39.895974
 20
141.624203
 30
0.0
 11
42.353431
 21
139.9034729999999
 31
0.0
  0
LINE
  5
6A
330
64
100
AcDbEntity
  8
CSLAYER1
  6
CONTINUOUS
 62
     4
100
AcDbLine
 10
51.936207
 20
139.501185
 30
0.0
 11
49.03843
 21
140.2776419999999
 31
0.0
  0
LINE
  5
6B
330
64
100
AcDbEntity
  8
CSLAYER1
  6
CONTINUOUS
 62
     4
100
AcDbLine
 10
51.936207
 20
139.501185
 30
0.0
 11
49.03843
 21
138.7247279999999
 31
0.0
  0
LINE
  5
6C
330
64
100
AcDbEntity
  8
CSLAYER1
  6
CONTINUOUS
 62
     4
100
AcDbLine
 10
51.936207
 20
152.3380139999999
 30
0.0
 11
51.936207
 21
138.501185
 31
0.0
  0
LINE
  5
6D
330
64
100
AcDbEntity
  8
CSLAYER1
  6
CONTINUOUS
 62
     4
100
AcDbLine
 10
44.21376
 20
153.487222
 30
0.0
 11
39.553954
 21
140.68451
 31
0.0
  0
ENDBLK
  5
6E
330
64
100
AcDbEntity
  8
0
100
AcDbBlockEnd
  0
BLOCK
  5
70
330
6F
100
AcDbEntity
  8
0
100
AcDbBlockBegin
  2
*D4
 70
     1
 10
0.0
 20
0.0
 30
0.0
  3
*D4
  1

  0
TEXT
  5
71
330
6F
100
AcDbEntity
  8
CSLAYER1
 62
     4
100
AcDbText
 10
53.30808000000001
 20
161.1107699999999
 30
0.0
 40
3.2
  1
3%%d
 50
26.1908860723234
 41
1.500000009953341
 51
15.0
  7
FX_FONT
 72
     5
 11
59.05098299999998
 21
163.935494
 31
0.0
100
AcDbText
  0
ARC
  5
72
330
6F
100
AcDbEntity
  8
CSLAYER1
  6
CONTINUOUS
 62
     4
100
AcDbCircle
 10
51.936207
 20
171.150172
 30
0.0
 40
10.61413399999999
100
AcDbArc
 50
267.0
 51
270.0
  0
ARC
  5
73
330
6F
100
AcDbEntity
  8
CSLAYER1
  6
CONTINUOUS
 62
     4
100
AcDbCircle
 10
51.936207
 20
171.150172
 30
0.0
 40
10.61413399999999
100
AcDbArc
 50
270.0
 51
322.381814
  0
LINE
  5
74
330
6F
100
AcDbEntity
  8
CSLAYER1
  6
CONTINUOUS
 62
     4
100
AcDbLine
 10
51.936207
 20
160.536038
 30
0.0
 11
54.83398499999999
 21
161.3124949999999
 31
0.0
  0
LINE
  5
75
330
6F
100
AcDbEntity
  8
CSLAYER1
  6
CONTINUOUS
 62
     4
100
AcDbLine
 10
51.936207
 20
160.536038
 30
0.0
 11
54.83398499999999
 21
159.759581
 31
0.0
  0
ARC
  5
76
330
6F
100
AcDbEntity
  8
CSLAYER1
  6
CONTINUOUS
 62
     4
100
AcDbCircle
 10
51.936207
 20
171.150172
 30
0.0
 40
10.61413399999999
100
AcDbArc
 50
249.967225
 51
267.0
  0
LINE
  5
77
330
6F
100
AcDbEntity
  8
CSLAYER1
  6
CONTINUOUS
 62
     4
100
AcDbLine
 10
51.38070599999998
 20
160.550584
 30
0.0
 11
48.446263
 21
159.926849
 31
0.0
  0
LINE
  5
78
330
6F
100
AcDbEntity
  8
CSLAYER1
  6
CONTINUOUS
 62
     4
100
AcDbLine
 10
51.38070599999998
 20
160.550584
 30
0.0
 11
48.527537
 21
161.477635
 31
0.0
  0
ENDBLK
  5
79
330
6F
100
AcDbEntity
  8
0
100
AcDbBlockEnd
  0
BLOCK
  5
7B
330
7A
100
AcDbEntity
  8
0
100
AcDbBlockBegin
  2
*D5
 70
     1
 10
0.0
 20
0.0
 30
0.0
  3
*D5
  1

  0
TEXT
  5
7C
330
7A
100
AcDbEntity
  8
CSLAYER1
 62
     4
100
AcDbText
 10
36.091045
 20
165.100177
 30
0.0
 40
3.2
  1
（2）
 50
90.0
 41
1.153846153846142
 51
15.0
  7
FX_FONT
 72
     5
 11
36.091045
 21
174.7001769999999
 31
0.0
100
AcDbText
  0
LINE
  5
7D
330
7A
100
AcDbEntity
  8
CSLAYER1
  6
CONTINUOUS
 62
     4
100
AcDbLine
 10
37.362513
 20
167.4001719999999
 30
0.0
 11
37.362513
 21
172.4001719999999
 31
0.0
  0
LINE
  5
7E
330
7A
100
AcDbEntity
  8
CSLAYER1
  6
CONTINUOUS
 62
     4
100
AcDbLine
 10
48.27766
 20
167.4001719999999
 30
0.0
 11
36.362513
 21
167.4001719999999
 31
0.0
  0
LINE
  5
7F
330
7A
100
AcDbEntity
  8
CSLAYER1
  6
CONTINUOUS
 62
     4
100
AcDbLine
 10
50.936207
 20
172.4001719999999
 30
0.0
 11
36.362513
 21
172.4001719999999
 31
0.0
  0
LINE
  5
80
330
7A
100
AcDbEntity
  8
CSLAYER1
  6
CONTINUOUS
 62
     4
100
AcDbLine
 10
37.362513
 20
161.400172
 30
0.0
 11
37.362513
 21
167.4001719999999
 31
0.0
  0
LINE
  5
81
330
7A
100
AcDbEntity
  8
CSLAYER1
  6
CONTINUOUS
 62
     4
100
AcDbLine
 10
37.362513
 20
167.4001719999999
 30
0.0
 11
36.586056
 21
164.5023939999999
 31
0.0
  0
LINE
  5
82
330
7A
100
AcDbEntity
  8
CSLAYER1
  6
CONTINUOUS
 62
     4
100
AcDbLine
 10
37.362513
 20
167.4001719999999
 30
0.0
 11
38.13897
 21
164.5023939999999
 31
0.0
  0
LINE
  5
83
330
7A
100
AcDbEntity
  8
CSLAYER1
  6
CONTINUOUS
 62
     4
100
AcDbLine
 10
37.362513
 20
172.4001719999999
 30
0.0
 11
37.362513
 21
178.400172
 31
0.0
  0
LINE
  5
84
330
7A
100
AcDbEntity
  8
CSLAYER1
  6
CONTINUOUS
 62
     4
100
AcDbLine
 10
37.362513
 20
172.4001719999999
 30
0.0
 11
36.586056
 21
175.2979489999999
 31
0.0
  0
LINE
  5
85
330
7A
100
AcDbEntity
  8
CSLAYER1
  6
CONTINUOUS
 62
     4
100
AcDbLine
 10
37.362513
 20
172.4001719999999
 30
0.0
 11
38.13897
 21
175.2979489999999
 31
0.0
  0
ENDBLK
  5
86
330
7A
100
AcDbEntity
  8
0
100
AcDbBlockEnd
  0
BLOCK
  5
88
330
87
100
AcDbEntity
  8
0
100
AcDbBlockBegin
  2
FXDIM0000
 70
     0
 10
0.0
 20
0.0
 30
0.0
  3
FXDIM0000
  1

  0
LINE
  5
89
330
87
100
AcDbEntity
  8
CSLAYER1
  6
CONTINUOUS
 62
     4
100
AcDbLine
 10
107.305899
 20
166.539162
 30
0.0
 11
98.63304599999999
 21
166.539162
 31
0.0
  0
ENDBLK
  5
8A
330
87
100
AcDbEntity
  8
0
100
AcDbBlockEnd
  0
BLOCK
  5
8C
330
8B
100
AcDbEntity
  8
0
100
AcDbBlockBegin
  2
*D7
 70
     1
 10
0.0
 20
0.0
 30
0.0
  3
*D7
  1

  0
TEXT
  5
8D
330
8B
100
AcDbEntity
  8
CSLAYER1
 62
     4
100
AcDbText
 10
120.8716169999999
 20
223.0527649999999
 30
0.0
 40
3.2
  1
24
 41
1.200000000000017
 51
15.0
  7
FX_FONT
 72
     5
 11
127.271617
 21
223.0527649999999
 31
0.0
100
AcDbText
  0
LINE
  5
8E
330
8B
100
AcDbEntity
  8
CSLAYER1
  6
CONTINUOUS
 62
     4
100
AcDbLine
 10
118.0716169999999
 20
222.052768
 30
0.0
 11
130.071617
 21
222.052768
 31
0.0
  0
LINE
  5
8F
330
8B
100
AcDbEntity
  8
CSLAYER1
  6
CONTINUOUS
 62
     4
100
AcDbLine
 10
118.0716169999999
 20
222.052768
 30
0.0
 11
120.9693949999999
 21
222.8292249999999
 31
0.0
  0
LINE
  5
90
330
8B
100
AcDbEntity
  8
CSLAYER1
  6
CONTINUOUS
 62
     4
100
AcDbLine
 10
118.0716169999999
 20
222.052768
 30
0.0
 11
120.9693949999999
 21
221.27631
 31
0.0
  0
LINE
  5
91
330
8B
100
AcDbEntity
  8
CSLAYER1
  6
CONTINUOUS
 62
     4
100
AcDbLine
 10
130.071617
 20
222.052768
 30
0.0
 11
127.1738399999997
 21
222.8292249999999
 31
0.0
  0
LINE
  5
92
330
8B
100
AcDbEntity
  8
CSLAYER1
  6
CONTINUOUS
 62
     4
100
AcDbLine
 10
130.071617
 20
222.052768
 30
0.0
 11
127.1738399999997
 21
221.27631
 31
0.0
  0
LINE
  5
93
330
8B
100
AcDbEntity
  8
CSLAYER1
  6
CONTINUOUS
 62
     4
100
AcDbLine
 10
130.071617
 20
163.7891619999997
 30
0.0
 11
130.071617
 21
223.052768
 31
0.0
  0
ENDBLK
  5
94
330
8B
100
AcDbEntity
  8
0
100
AcDbBlockEnd
  0
BLOCK
  5
96
330
95
100
AcDbEntity
  8
0
100
AcDbBlockBegin
  2
*D8
 70
     1
 10
0.0
 20
0.0
 30
0.0
  3
*D8
  1

  0
TEXT
  5
97
330
95
100
AcDbEntity
  8
CSLAYER1
 62
     4
100
AcDbText
 10
118.4716169999999
 20
217.0527649999999
 30
0.0
 40
3.2
  1
8
 41
1.499999999999994
 51
15.0
  7
FX_FONT
 72
     5
 11
121.6716169999999
 21
217.0527649999999
 31
0.0
100
AcDbText
  0
LINE
  5
98
330
95
100
AcDbEntity
  8
CSLAYER1
  6
CONTINUOUS
 62
     4
100
AcDbLine
 10
118.0716169999999
 20
216.052768
 30
0.0
 11
122.0716169999999
 21
216.052768
 31
0.0
  0
LINE
  5
99
330
95
100
AcDbEntity
  8
CSLAYER1
  6
CONTINUOUS
 62
     4
100
AcDbLine
 10
122.0716169999999
 20
211.289162
 30
0.0
 11
122.0716169999999
 21
217.052768
 31
0.0
  0
LINE
  5
9A
330
95
100
AcDbEntity
  8
CSLAYER1
  6
CONTINUOUS
 62
     4
100
AcDbLine
 10
112.0716169999999
 20
216.052768
 30
0.0
 11
118.0716169999999
 21
216.052768
 31
0.0
  0
LINE
  5
9B
330
95
100
AcDbEntity
  8
CSLAYER1
  6
CONTINUOUS
 62
     4
100
AcDbLine
 10
118.0716169999999
 20
216.052768
 30
0.0
 11
115.1738399999999
 21
216.8292249999999
 31
0.0
  0
LINE
  5
9C
330
95
100
AcDbEntity
  8
CSLAYER1
  6
CONTINUOUS
 62
     4
100
AcDbLine
 10
118.0716169999999
 20
216.052768
 30
0.0
 11
115.1738399999999
 21
215.27631
 31
0.0
  0
LINE
  5
9D
330
95
100
AcDbEntity
  8
CSLAYER1
  6
CONTINUOUS
 62
     4
100
AcDbLine
 10
122.0716169999999
 20
216.052768
 30
0.0
 11
128.071617
 21
216.052768
 31
0.0
  0
LINE
  5
9E
330
95
100
AcDbEntity
  8
CSLAYER1
  6
CONTINUOUS
 62
     4
100
AcDbLine
 10
122.0716169999999
 20
216.052768
 30
0.0
 11
124.9693949999999
 21
216.8292249999999
 31
0.0
  0
LINE
  5
9F
330
95
100
AcDbEntity
  8
CSLAYER1
  6
CONTINUOUS
 62
     4
100
AcDbLine
 10
122.0716169999999
 20
216.052768
 30
0.0
 11
124.9693949999999
 21
215.27631
 31
0.0
  0
ENDBLK
  5
A0
330
95
100
AcDbEntity
  8
0
100
AcDbBlockEnd
  0
BLOCK
  5
A2
330
A1
100
AcDbEntity
  8
0
100
AcDbBlockBegin
  2
*D9
 70
     1
 10
0.0
 20
0.0
 30
0.0
  3
*D9
  1

  0
TEXT
  5
A3
330
A1
100
AcDbEntity
  8
CSLAYER1
 62
     4
100
AcDbText
 10
110.8716169999999
 20
223.0527649999999
 30
0.0
 40
3.2
  1
16
 41
1.200000000000001
 51
15.0
  7
FX_FONT
 72
     5
 11
117.2716169999999
 21
223.0527649999999
 31
0.0
100
AcDbText
  0
LINE
  5
A4
330
A1
100
AcDbEntity
  8
CSLAYER1
  6
CONTINUOUS
 62
     4
100
AcDbLine
 10
110.0716169999997
 20
222.052768
 30
0.0
 11
118.0716169999999
 21
222.052768
 31
0.0
  0
LINE
  5
A5
330
A1
100
AcDbEntity
  8
CSLAYER1
  6
CONTINUOUS
 62
     4
100
AcDbLine
 10
110.0716169999997
 20
222.052768
 30
0.0
 11
112.9693949999999
 21
222.8292249999999
 31
0.0
  0
LINE
  5
A6
330
A1
100
AcDbEntity
  8
CSLAYER1
  6
CONTINUOUS
 62
     4
100
AcDbLine
 10
110.0716169999997
 20
222.052768
 30
0.0
 11
112.9693949999999
 21
221.27631
 31
0.0
  0
LINE
  5
A7
330
A1
100
AcDbEntity
  8
CSLAYER1
  6
CONTINUOUS
 62
     4
100
AcDbLine
 10
118.0716169999999
 20
222.052768
 30
0.0
 11
115.1738399999999
 21
222.8292249999999
 31
0.0
  0
LINE
  5
A8
330
A1
100
AcDbEntity
  8
CSLAYER1
  6
CONTINUOUS
 62
     4
100
AcDbLine
 10
118.0716169999999
 20
222.052768
 30
0.0
 11
115.1738399999999
 21
221.27631
 31
0.0
  0
LINE
  5
A9
330
A1
100
AcDbEntity
  8
CSLAYER1
  6
CONTINUOUS
 62
     4
100
AcDbLine
 10
110.0716169999997
 20
186.289162
 30
0.0
 11
110.0716169999997
 21
223.052768
 31
0.0
  0
LINE
  5
AA
330
A1
100
AcDbEntity
  8
CSLAYER1
  6
CONTINUOUS
 62
     4
100
AcDbLine
 10
118.0716169999999
 20
211.289162
 30
0.0
 11
118.0716169999999
 21
223.052768
 31
0.0
  0
ENDBLK
  5
AB
330
A1
100
AcDbEntity
  8
0
100
AcDbBlockEnd
  0
BLOCK
  5
AD
330
AC
100
AcDbEntity
  8
0
100
AcDbBlockBegin
  2
*D10
 70
     1
 10
0.0
 20
0.0
 30
0.0
  3
*D10
  1

  0
TEXT
  5
AE
330
AC
100
AcDbEntity
  8
CSLAYER1
 62
     4
100
AcDbText
 10
111.217633
 20
195.6717379999999
 30
0.0
 40
3.2
  1
12
 41
1.200000000000001
 51
15.0
  7
FX_FONT
 72
     5
 11
117.617633
 21
195.6717379999999
 31
0.0
100
AcDbText
  0
LINE
  5
AF
330
AC
100
AcDbEntity
  8
CSLAYER1
  6
CONTINUOUS
 62
     4
100
AcDbLine
 10
112.0716169999999
 20
194.5799899999999
 30
0.0
 11
118.0716169999999
 21
194.5799899999999
 31
0.0
  0
LINE
  5
B0
330
AC
100
AcDbEntity
  8
CSLAYER1
  6
CONTINUOUS
 62
     4
100
AcDbLine
 10
112.0716169999999
 20
194.5799899999999
 30
0.0
 11
114.9693949999999
 21
195.356447
 31
0.0
  0
LINE
  5
B1
330
AC
100
AcDbEntity
  8
CSLAYER1
  6
CONTINUOUS
 62
     4
100
AcDbLine
 10
112.0716169999999
 20
194.5799899999999
 30
0.0
 11
114.9693949999999
 21
193.803533
 31
0.0
  0
LINE
  5
B2
330
AC
100
AcDbEntity
  8
CSLAYER1
  6
CONTINUOUS
 62
     4
100
AcDbLine
 10
118.0716169999999
 20
194.5799899999999
 30
0.0
 11
115.1738399999999
 21
195.356447
 31
0.0
  0
LINE
  5
B3
330
AC
100
AcDbEntity
  8
CSLAYER1
  6
CONTINUOUS
 62
     4
100
AcDbLine
 10
118.0716169999999
 20
194.5799899999999
 30
0.0
 11
115.1738399999999
 21
193.803533
 31
0.0
  0
LINE
  5
B4
330
AC
100
AcDbEntity
  8
CSLAYER1
  6
CONTINUOUS
 62
     4
100
AcDbLine
 10
112.0716169999999
 20
181.289162
 30
0.0
 11
112.0716169999999
 21
195.5799899999999
 31
0.0
  0
ENDBLK
  5
B5
330
AC
100
AcDbEntity
  8
0
100
AcDbBlockEnd
  0
BLOCK
  5
B7
330
B6
100
AcDbEntity
  8
0
100
AcDbBlockBegin
  2
*D11
 70
     1
 10
0.0
 20
0.0
 30
0.0
  3
*D11
  1

  0
TEXT
  5
B8
330
B6
100
AcDbEntity
  8
CSLAYER1
 62
     4
100
AcDbText
 10
106.01013
 20
195.579987
 30
0.0
 40
3.2
  1
4
 41
1.500000000000001
 51
15.0
  7
FX_FONT
 72
     5
 11
109.21013
 21
195.579987
 31
0.0
100
AcDbText
  0
LINE
  5
B9
330
B6
100
AcDbEntity
  8
CSLAYER1
  6
CONTINUOUS
 62
     4
100
AcDbLine
 10
110.0716169999997
 20
194.5799899999999
 30
0.0
 11
112.0716169999999
 21
194.5799899999999
 31
0.0
  0
LINE
  5
BA
330
B6
100
AcDbEntity
  8
CSLAYER1
  6
CONTINUOUS
 62
     4
100
AcDbLine
 10
105.148635
 20
194.5799899999999
 30
0.0
 11
110.0716169999997
 21
194.5799899999999
 31
0.0
  0
LINE
  5
BB
330
B6
100
AcDbEntity
  8
CSLAYER1
  6
CONTINUOUS
 62
     4
100
AcDbLine
 10
110.0716169999997
 20
194.5799899999999
 30
0.0
 11
107.1738399999997
 21
195.356447
 31
0.0
  0
LINE
  5
BC
330
B6
100
AcDbEntity
  8
CSLAYER1
  6
CONTINUOUS
 62
     4
100
AcDbLine
 10
110.0716169999997
 20
194.5799899999999
 30
0.0
 11
107.1738399999997
 21
193.803533
 31
0.0
  0
ENDBLK
  5
BD
330
B6
100
AcDbEntity
  8
0
100
AcDbBlockEnd
  0
BLOCK
  5
BF
330
BE
100
AcDbEntity
  8
0
100
AcDbBlockBegin
  2
*D12
 70
     1
 10
0.0
 20
0.0
 30
0.0
  3
*D12
  1

  0
TEXT
  5
C0
330
BE
100
AcDbEntity
  8
CSLAYER1
 62
     4
100
AcDbText
 10
93.99350699999999
 20
174.5141689999999
 30
0.0
 40
3.2
  1
17.5
 50
90.0
 41
1.090909090909091
 51
15.0
  7
FX_FONT
 72
     5
 11
93.99350699999999
 21
187.3141689999999
 31
0.0
100
AcDbText
  0
LINE
  5
C1
330
BE
100
AcDbEntity
  8
CSLAYER1
  6
CONTINUOUS
 62
     4
100
AcDbLine
 10
98.19350100000001
 20
176.539162
 30
0.0
 11
98.19350100000001
 21
185.289162
 31
0.0
  0
LINE
  5
C2
330
BE
100
AcDbEntity
  8
CSLAYER1
  6
CONTINUOUS
 62
     4
100
AcDbLine
 10
106.866189
 20
176.539162
 30
0.0
 11
97.19350099999999
 21
176.539162
 31
0.0
  0
ENDBLK
  5
C3
330
BE
100
AcDbEntity
  8
0
100
AcDbBlockEnd
  0
BLOCK
  5
C5
330
C4
100
AcDbEntity
  8
0
100
AcDbBlockBegin
  2
*D13
 70
     1
 10
0.0
 20
0.0
 30
0.0
  3
*D13
  1

  0
TEXT
  5
C6
330
C4
100
AcDbEntity
  8
CSLAYER1
 62
     4
100
AcDbText
 10
97.19350400000001
 20
168.339169
 30
0.0
 40
3.2
  1
20
 50
90.0
 41
1.200000000000001
 51
15.0
  7
FX_FONT
 72
     5
 11
97.19350400000001
 21
174.739169
 31
0.0
100
AcDbText
  0
LINE
  5
C7
330
C4
100
AcDbEntity
  8
CSLAYER1
  6
CONTINUOUS
 62
     4
100
AcDbLine
 10
98.19350100000001
 20
166.539162
 30
0.0
 11
98.19350100000001
 21
176.539162
 31
0.0
  0
LINE
  5
C8
330
C4
100
AcDbEntity
  8
CSLAYER1
  6
CONTINUOUS
 62
     4
100
AcDbLine
 10
98.19350100000001
 20
166.539162
 30
0.0
 11
97.41704400000001
 21
169.436939
 31
0.0
  0
LINE
  5
C9
330
C4
100
AcDbEntity
  8
CSLAYER1
  6
CONTINUOUS
 62
     4
100
AcDbLine
 10
98.19350100000001
 20
166.539162
 30
0.0
 11
98.96995799999999
 21
169.436939
 31
0.0
  0
LINE
  5
CA
330
C4
100
AcDbEntity
  8
CSLAYER1
  6
CONTINUOUS
 62
     4
100
AcDbLine
 10
98.19350100000001
 20
176.539162
 30
0.0
 11
97.41704400000001
 21
173.641384
 31
0.0
  0
LINE
  5
CB
330
C4
100
AcDbEntity
  8
CSLAYER1
  6
CONTINUOUS
 62
     4
100
AcDbLine
 10
98.19350100000001
 20
176.539162
 30
0.0
 11
98.96995799999999
 21
173.641384
 31
0.0
  0
LINE
  5
CC
330
C4
100
AcDbEntity
  8
CSLAYER1
  6
CONTINUOUS
 62
     4
100
AcDbLine
 10
106.866189
 20
166.539162
 30
0.0
 11
97.19350099999999
 21
166.539162
 31
0.0
  0
ENDBLK
  5
CD
330
C4
100
AcDbEntity
  8
0
100
AcDbBlockEnd
  0
BLOCK
  5
CF
330
CE
100
AcDbEntity
  8
0
100
AcDbBlockBegin
  2
*D14
 70
     1
 10
0.0
 20
0.0
 30
0.0
  3
*D14
  1

  0
TEXT
  5
D0
330
CE
100
AcDbEntity
  8
CSLAYER1
 62
     4
100
AcDbText
 10
97.19350400000001
 20
190.839169
 30
0.0
 40
3.2
  1
35
 50
90.0
 41
1.200000000000001
 51
15.0
  7
FX_FONT
 72
     5
 11
97.19350400000001
 21
197.239169
 31
0.0
100
AcDbText
  0
LINE
  5
D1
330
CE
100
AcDbEntity
  8
CSLAYER1
  6
CONTINUOUS
 62
     4
100
AcDbLine
 10
98.19350100000001
 20
185.289162
 30
0.0
 11
98.19350100000001
 21
202.789162
 31
0.0
  0
LINE
  5
D2
330
CE
100
AcDbEntity
  8
CSLAYER1
  6
CONTINUOUS
 62
     4
100
AcDbLine
 10
98.19350100000001
 20
185.289162
 30
0.0
 11
97.41704400000001
 21
188.186939
 31
0.0
  0
LINE
  5
D3
330
CE
100
AcDbEntity
  8
CSLAYER1
  6
CONTINUOUS
 62
     4
100
AcDbLine
 10
98.19350100000001
 20
185.289162
 30
0.0
 11
98.96995799999999
 21
188.186939
 31
0.0
  0
LINE
  5
D4
330
CE
100
AcDbEntity
  8
CSLAYER1
  6
CONTINUOUS
 62
     4
100
AcDbLine
 10
98.19350100000001
 20
202.789162
 30
0.0
 11
97.41704400000001
 21
199.891384
 31
0.0
  0
LINE
  5
D5
330
CE
100
AcDbEntity
  8
CSLAYER1
  6
CONTINUOUS
 62
     4
100
AcDbLine
 10
98.19350100000001
 20
202.789162
 30
0.0
 11
98.96995799999999
 21
199.891384
 31
0.0
  0
LINE
  5
D6
330
CE
100
AcDbEntity
  8
CSLAYER1
  6
CONTINUOUS
 62
     4
100
AcDbLine
 10
109.0716169999997
 20
185.289162
 30
0.0
 11
97.19350099999999
 21
185.289162
 31
0.0
  0
LINE
  5
D7
330
CE
100
AcDbEntity
  8
CSLAYER1
  6
CONTINUOUS
 62
     4
100
AcDbLine
 10
121.0716169999999
 20
202.789162
 30
0.0
 11
97.19350099999999
 21
202.789162
 31
0.0
  0
ENDBLK
  5
D8
330
CE
100
AcDbEntity
  8
0
100
AcDbBlockEnd
  0
BLOCK
  5
DA
330
D9
100
AcDbEntity
  8
0
100
AcDbBlockBegin
  2
*D15
 70
     1
 10
0.0
 20
0.0
 30
0.0
  3
*D15
  1

  0
TEXT
  5
DB
330
D9
100
AcDbEntity
  8
CSLAYER1
 62
     4
100
AcDbText
 10
97.19350400000001
 20
100.4141619999999
 30
0.0
 40
3.2
  1
232.5
 50
90.0
 41
1.071428571428578
 51
15.0
  7
FX_FONT
 72
     5
 11
97.19350400000001
 21
116.414162
 31
0.0
100
AcDbText
  0
LINE
  5
DC
330
D9
100
AcDbEntity
  8
CSLAYER1
  6
CONTINUOUS
 62
     4
100
AcDbLine
 10
98.19350100000001
 20
50.289162
 30
0.0
 11
98.19350100000001
 21
166.539162
 31
0.0
  0
LINE
  5
DD
330
D9
100
AcDbEntity
  8
CSLAYER1
  6
CONTINUOUS
 62
     4
100
AcDbLine
 10
98.19350100000001
 20
50.289162
 30
0.0
 11
97.41704400000001
 21
53.186939
 31
0.0
  0
LINE
  5
DE
330
D9
100
AcDbEntity
  8
CSLAYER1
  6
CONTINUOUS
 62
     4
100
AcDbLine
 10
98.19350100000001
 20
50.289162
 30
0.0
 11
98.96995799999999
 21
53.186939
 31
0.0
  0
LINE
  5
DF
330
D9
100
AcDbEntity
  8
CSLAYER1
  6
CONTINUOUS
 62
     4
100
AcDbLine
 10
98.19350100000001
 20
166.539162
 30
0.0
 11
97.41704400000001
 21
163.641384
 31
0.0
  0
LINE
  5
E0
330
D9
100
AcDbEntity
  8
CSLAYER1
  6
CONTINUOUS
 62
     4
100
AcDbLine
 10
98.19350100000001
 20
166.539162
 30
0.0
 11
98.96995799999999
 21
163.641384
 31
0.0
  0
LINE
  5
E1
330
D9
100
AcDbEntity
  8
CSLAYER1
  6
CONTINUOUS
 62
     4
100
AcDbLine
 10
107.8216169999999
 20
50.289162
 30
0.0
 11
97.19350099999999
 21
50.289162
 31
0.0
  0
ENDBLK
  5
E2
330
D9
100
AcDbEntity
  8
0
100
AcDbBlockEnd
  0
BLOCK
  5
E4
330
E3
100
AcDbEntity
  8
0
100
AcDbBlockBegin
  2
FXDIM0001
 70
     0
 10
0.0
 20
0.0
 30
0.0
  3
FXDIM0001
  1

  0
LINE
  5
E5
330
E3
100
AcDbEntity
  8
CSLAYER1
  6
CONTINUOUS
 62
     4
100
AcDbLine
 10
311.037298
 20
165.70633
 30
0.0
 11
327.240023
 21
151.229869
 31
0.0
  0
LINE
  5
E6
330
E3
100
AcDbEntity
  8
CSLAYER1
  6
CONTINUOUS
 62
     4
100
AcDbLine
 10
311.037298
 20
165.70633
 30
0.0
 11
313.7155399999997
 21
164.3546579999999
 31
0.0
  0
LINE
  5
E7
330
E3
100
AcDbEntity
  8
CSLAYER1
  6
CONTINUOUS
 62
     4
100
AcDbLine
 10
311.037298
 20
165.70633
 30
0.0
 11
312.680887
 21
163.196626
 31
0.0
  0
LINE
  5
E8
330
E3
100
AcDbEntity
  8
CSLAYER1
  6
CONTINUOUS
 62
     4
100
AcDbLine
 10
327.240023
 20
151.229869
 30
0.0
 11
370.840024
 21
151.229869
 31
0.0
  0
TEXT
  5
E9
330
E3
100
AcDbEntity
  8
CSLAYER1
 62
     4
100
AcDbText
 10
328.240039
 20
152.229874
 30
0.0
 40
3.2
  1
4-M5X0.8 深サ12
 41
1.026315789473679
 51
15.0
  7
FX_FONT
 72
     5
 11
369.8400389999998
 21
152.229874
 31
0.0
100
AcDbText
  0
ENDBLK
  5
EA
330
E3
100
AcDbEntity
  8
0
100
AcDbBlockEnd
  0
BLOCK
  5
EC
330
EB
100
AcDbEntity
  8
0
100
AcDbBlockBegin
  2
*D17
 70
     1
 10
0.0
 20
0.0
 30
0.0
  3
*D17
  1

  0
TEXT
  5
ED
330
EB
100
AcDbEntity
  8
CSLAYER1
 62
     4
100
AcDbText
 10
200.349924
 20
253.691116
 30
0.0
 40
3.2
  1
60.5
 41
1.090909090909094
 51
15.0
  7
FX_FONT
 72
     5
 11
213.149924
 21
253.691116
 31
0.0
100
AcDbText
  0
LINE
  5
EE
330
EB
100
AcDbEntity
  8
CSLAYER1
  6
CONTINUOUS
 62
     4
100
AcDbLine
 10
191.624912
 20
252.6911109999999
 30
0.0
 11
221.874912
 21
252.6911109999999
 31
0.0
  0
LINE
  5
EF
330
EB
100
AcDbEntity
  8
CSLAYER1
  6
CONTINUOUS
 62
     4
100
AcDbLine
 10
191.624912
 20
252.6911109999999
 30
0.0
 11
194.5226889999999
 21
253.467568
 31
0.0
  0
LINE
  5
F0
330
EB
100
AcDbEntity
  8
CSLAYER1
  6
CONTINUOUS
 62
     4
100
AcDbLine
 10
191.624912
 20
252.6911109999999
 30
0.0
 11
194.5226889999999
 21
251.914654
 31
0.0
  0
LINE
  5
F1
330
EB
100
AcDbEntity
  8
CSLAYER1
  6
CONTINUOUS
 62
     4
100
AcDbLine
 10
221.874912
 20
252.6911109999999
 30
0.0
 11
218.9771339999999
 21
253.467568
 31
0.0
  0
LINE
  5
F2
330
EB
100
AcDbEntity
  8
CSLAYER1
  6
CONTINUOUS
 62
     4
100
AcDbLine
 10
221.874912
 20
252.6911109999999
 30
0.0
 11
218.9771339999999
 21
251.914654
 31
0.0
  0
LINE
  5
F3
330
EB
100
AcDbEntity
  8
CSLAYER1
  6
CONTINUOUS
 62
     4
100
AcDbLine
 10
191.624912
 20
247.493125
 30
0.0
 11
191.624912
 21
253.6911109999999
 31
0.0
  0
LINE
  5
F4
330
EB
100
AcDbEntity
  8
CSLAYER1
  6
CONTINUOUS
 62
     4
100
AcDbLine
 10
221.874912
 20
247.493125
 30
0.0
 11
221.874912
 21
253.6911109999999
 31
0.0
  0
ENDBLK
  5
F5
330
EB
100
AcDbEntity
  8
0
100
AcDbBlockEnd
  0
BLOCK
  5
F7
330
F6
100
AcDbEntity
  8
0
100
AcDbBlockBegin
  2
FXDIM0002
 70
     0
 10
0.0
 20
0.0
 30
0.0
  3
FXDIM0002
  1

  0
LINE
  5
F8
330
F6
100
AcDbEntity
  8
CSLAYER1
  6
CONTINUOUS
 62
     4
100
AcDbLine
 10
201.535232
 20
233.636341
 30
0.0
 11
191.364111
 21
217.8886869999999
 31
0.0
  0
LINE
  5
F9
330
F6
100
AcDbEntity
  8
CSLAYER1
  6
CONTINUOUS
 62
     4
100
AcDbLine
 10
191.364111
 20
217.8886869999999
 30
0.0
 11
179.76411
 21
217.8886869999999
 31
0.0
  0
TEXT
  5
FA
330
F6
100
AcDbEntity
  8
CSLAYER1
 62
     4
100
AcDbText
 10
180.764117
 20
218.888702
 30
0.0
 40
3.2
  1
切刃部
 41
0.9000000937499935
 51
15.0
  7
FX_FONT
 72
     5
 11
190.3641179999999
 21
218.888702
 31
0.0
100
AcDbText
  0
ENDBLK
  5
FB
330
F6
100
AcDbEntity
  8
0
100
AcDbBlockEnd
  0
BLOCK
  5
FD
330
FC
100
AcDbEntity
  8
0
100
AcDbBlockBegin
  2
*D19
 70
     1
 10
0.0
 20
0.0
 30
0.0
  3
*D19
  1

  0
TEXT
  5
FE
330
FC
100
AcDbEntity
  8
CSLAYER1
 62
     4
100
AcDbText
 10
163.825455
 20
233.293118
 30
0.0
 40
3.2
  1
40
 50
90.0
 41
1.200000000000001
 51
15.0
  7
FX_FONT
 72
     5
 11
163.825455
 21
239.693118
 31
0.0
100
AcDbText
  0
LINE
  5
FF
330
FC
100
AcDbEntity
  8
CSLAYER1
  6
CONTINUOUS
 62
     4
100
AcDbLine
 10
164.825452
 20
226.493125
 30
0.0
 11
164.825452
 21
246.4931249999999
 31
0.0
  0
LINE
  5
100
330
FC
100
AcDbEntity
  8
CSLAYER1
  6
CONTINUOUS
 62
     4
100
AcDbLine
 10
164.825452
 20
226.493125
 30
0.0
 11
164.0489949999999
 21
229.390903
 31
0.0
  0
LINE
  5
101
330
FC
100
AcDbEntity
  8
CSLAYER1
  6
CONTINUOUS
 62
     4
100
AcDbLine
 10
164.825452
 20
226.493125
 30
0.0
 11
165.601909
 21
229.390903
 31
0.0
  0
LINE
  5
102
330
FC
100
AcDbEntity
  8
CSLAYER1
  6
CONTINUOUS
 62
     4
100
AcDbLine
 10
164.825452
 20
246.4931249999999
 30
0.0
 11
164.0489949999999
 21
243.595348
 31
0.0
  0
LINE
  5
103
330
FC
100
AcDbEntity
  8
CSLAYER1
  6
CONTINUOUS
 62
     4
100
AcDbLine
 10
164.825452
 20
246.4931249999999
 30
0.0
 11
165.601909
 21
243.595348
 31
0.0
  0
LINE
  5
104
330
FC
100
AcDbEntity
  8
CSLAYER1
  6
CONTINUOUS
 62
     4
100
AcDbLine
 10
190.624912
 20
226.493125
 30
0.0
 11
163.825452
 21
226.493125
 31
0.0
  0
LINE
  5
105
330
FC
100
AcDbEntity
  8
CSLAYER1
  6
CONTINUOUS
 62
     4
100
AcDbLine
 10
190.624912
 20
246.4931249999999
 30
0.0
 11
163.825452
 21
246.4931249999999
 31
0.0
  0
ENDBLK
  5
106
330
FC
100
AcDbEntity
  8
0
100
AcDbBlockEnd
  0
BLOCK
  5
108
330
107
100
AcDbEntity
  8
0
100
AcDbBlockBegin
  2
*D20
 70
     1
 10
0.0
 20
0.0
 30
0.0
  3
*D20
  1

  0
TEXT
  5
109
330
107
100
AcDbEntity
  8
CSLAYER1
 62
     4
100
AcDbText
 10
169.825455
 20
233.543118
 30
0.0
 40
3.2
  1
23
 50
90.0
 41
1.200000000000001
 51
15.0
  7
FX_FONT
 72
     5
 11
169.825455
 21
239.943118
 31
0.0
100
AcDbText
  0
LINE
  5
10A
330
107
100
AcDbEntity
  8
CSLAYER1
  6
CONTINUOUS
 62
     4
100
AcDbLine
 10
170.825452
 20
230.9931249999999
 30
0.0
 11
170.825452
 21
242.4931249999999
 31
0.0
  0
LINE
  5
10B
330
107
100
AcDbEntity
  8
CSLAYER1
  6
CONTINUOUS
 62
     4
100
AcDbLine
 10
170.825452
 20
230.9931249999999
 30
0.0
 11
170.0489949999998
 21
233.8909029999999
 31
0.0
  0
LINE
  5
10C
330
107
100
AcDbEntity
  8
CSLAYER1
  6
CONTINUOUS
 62
     4
100
AcDbLine
 10
170.825452
 20
230.9931249999999
 30
0.0
 11
171.601909
 21
233.8909029999999
 31
0.0
  0
LINE
  5
10D
330
107
100
AcDbEntity
  8
CSLAYER1
  6
CONTINUOUS
 62
     4
100
AcDbLine
 10
170.825452
 20
242.4931249999999
 30
0.0
 11
170.0489949999998
 21
239.595348
 31
0.0
  0
LINE
  5
10E
330
107
100
AcDbEntity
  8
CSLAYER1
  6
CONTINUOUS
 62
     4
100
AcDbLine
 10
170.825452
 20
242.4931249999999
 30
0.0
 11
171.601909
 21
239.595348
 31
0.0
  0
LINE
  5
10F
330
107
100
AcDbEntity
  8
CSLAYER1
  6
CONTINUOUS
 62
     4
100
AcDbLine
 10
193.874912
 20
230.9931249999999
 30
0.0
 11
169.825452
 21
230.9931249999999
 31
0.0
  0
LINE
  5
110
330
107
100
AcDbEntity
  8
CSLAYER1
  6
CONTINUOUS
 62
     4
100
AcDbLine
 10
190.624912
 20
242.4931249999999
 30
0.0
 11
169.825452
 21
242.4931249999999
 31
0.0
  0
ENDBLK
  5
111
330
107
100
AcDbEntity
  8
0
100
AcDbBlockEnd
  0
BLOCK
  5
113
330
112
100
AcDbEntity
  8
0
100
AcDbBlockBegin
  2
*D21
 70
     1
 10
0.0
 20
0.0
 30
0.0
  3
*D21
  1

  0
TEXT
  5
114
330
112
100
AcDbEntity
  8
CSLAYER1
 62
     4
100
AcDbText
 10
175.825455
 20
230.293127
 30
0.0
 40
3.2
  1
8
 50
90.0
 41
1.500000000000007
 51
15.0
  7
FX_FONT
 72
     5
 11
175.825455
 21
233.493127
 31
0.0
100
AcDbText
  0
LINE
  5
115
330
112
100
AcDbEntity
  8
CSLAYER1
  6
CONTINUOUS
 62
     4
100
AcDbLine
 10
176.825452
 20
234.493125
 30
0.0
 11
176.825452
 21
238.493125
 31
0.0
  0
LINE
  5
116
330
112
100
AcDbEntity
  8
CSLAYER1
  6
CONTINUOUS
 62
     4
100
AcDbLine
 10
189.624912
 20
234.493125
 30
0.0
 11
175.825452
 21
234.493125
 31
0.0
  0
LINE
  5
117
330
112
100
AcDbEntity
  8
CSLAYER1
  6
CONTINUOUS
 62
     4
100
AcDbLine
 10
189.624912
 20
238.493125
 30
0.0
 11
175.825452
 21
238.493125
 31
0.0
  0
LINE
  5
118
330
112
100
AcDbEntity
  8
CSLAYER1
  6
CONTINUOUS
 62
     4
100
AcDbLine
 10
176.825452
 20
229.293125
 30
0.0
 11
176.825452
 21
234.493125
 31
0.0
  0
LINE
  5
119
330
112
100
AcDbEntity
  8
CSLAYER1
  6
CONTINUOUS
 62
     4
100
AcDbLine
 10
176.825452
 20
234.493125
 30
0.0
 11
176.048995
 21
231.595348
 31
0.0
  0
LINE
  5
11A
330
112
100
AcDbEntity
  8
CSLAYER1
  6
CONTINUOUS
 62
     4
100
AcDbLine
 10
176.825452
 20
234.493125
 30
0.0
 11
177.601909
 21
231.595348
 31
0.0
  0
ENDBLK
  5
11B
330
112
100
AcDbEntity
  8
0
100
AcDbBlockEnd
  0
BLOCK
  5
11D
330
11C
100
AcDbEntity
  8
0
100
AcDbBlockBegin
  2
*D22
 70
     1
 10
0.0
 20
0.0
 30
0.0
  3
*D22
  1

  0
TEXT
  5
11E
330
11C
100
AcDbEntity
  8
CSLAYER1
 62
     4
100
AcDbText
 10
175.825455
 20
238.893118
 30
0.0
 40
3.2
  1
8
 50
90.0
 41
1.499999999999994
 51
15.0
  7
FX_FONT
 72
     5
 11
175.825455
 21
242.093118
 31
0.0
100
AcDbText
  0
LINE
  5
11F
330
11C
100
AcDbEntity
  8
CSLAYER1
  6
CONTINUOUS
 62
     4
100
AcDbLine
 10
176.825452
 20
238.493125
 30
0.0
 11
176.825452
 21
242.4931249999999
 31
0.0
  0
CIRCLE
  5
120
330
11C
100
AcDbEntity
  8
CSLAYER1
  6
CONTINUOUS
 62
     4
100
AcDbCircle
 10
176.825452
 20
238.493125
 30
0.0
 40
1.0
  0
CIRCLE
  5
121
330
11C
100
AcDbEntity
  8
CSLAYER1
  6
CONTINUOUS
 62
     4
100
AcDbCircle
 10
176.825452
 20
238.493125
 30
0.0
 40
0.5
  0
ENDBLK
  5
122
330
11C
100
AcDbEntity
  8
0
100
AcDbBlockEnd
  0
BLOCK
  5
124
330
123
100
AcDbEntity
  8
0
100
AcDbBlockBegin
  2
*D23
 70
     1
 10
0.0
 20
0.0
 30
0.0
  3
*D23
  1

  0
TEXT
  5
125
330
123
100
AcDbEntity
  8
CSLAYER1
 62
     4
100
AcDbText
 10
175.825455
 20
247.493124
 30
0.0
 40
3.2
  1
8
 50
90.0
 41
1.499999999999994
 51
15.0
  7
FX_FONT
 72
     5
 11
175.825455
 21
250.693124
 31
0.0
100
AcDbText
  0
LINE
  5
126
330
123
100
AcDbEntity
  8
CSLAYER1
  6
CONTINUOUS
 62
     4
100
AcDbLine
 10
176.825452
 20
242.4931249999999
 30
0.0
 11
176.825452
 21
246.4931249999999
 31
0.0
  0
CIRCLE
  5
127
330
123
100
AcDbEntity
  8
CSLAYER1
  6
CONTINUOUS
 62
     4
100
AcDbCircle
 10
176.825452
 20
242.4931249999999
 30
0.0
 40
1.0
  0
CIRCLE
  5
128
330
123
100
AcDbEntity
  8
CSLAYER1
  6
CONTINUOUS
 62
     4
100
AcDbCircle
 10
176.825452
 20
242.4931249999999
 30
0.0
 40
0.5
  0
LINE
  5
129
330
123
100
AcDbEntity
  8
CSLAYER1
  6
CONTINUOUS
 62
     4
100
AcDbLine
 10
176.825452
 20
246.4931249999999
 30
0.0
 11
176.825452
 21
251.693125
 31
0.0
  0
LINE
  5
12A
330
123
100
AcDbEntity
  8
CSLAYER1
  6
CONTINUOUS
 62
     4
100
AcDbLine
 10
176.825452
 20
246.4931249999999
 30
0.0
 11
176.048995
 21
249.3909029999999
 31
0.0
  0
LINE
  5
12B
330
123
100
AcDbEntity
  8
CSLAYER1
  6
CONTINUOUS
 62
     4
100
AcDbLine
 10
176.825452
 20
246.4931249999999
 30
0.0
 11
177.601909
 21
249.3909029999999
 31
0.0
  0
ENDBLK
  5
12C
330
123
100
AcDbEntity
  8
0
100
AcDbBlockEnd
  0
BLOCK
  5
12E
330
12D
100
AcDbEntity
  8
0
100
AcDbBlockBegin
  2
FXDIM0003
 70
     0
 10
0.0
 20
0.0
 30
0.0
  3
FXDIM0003
  1

  0
LINE
  5
12F
330
12D
100
AcDbEntity
  8
CSLAYER1
  6
CONTINUOUS
 62
     4
100
AcDbLine
 10
213.2124979999999
 20
202.283602
 30
0.0
 11
227.268571
 21
213.128208
 31
0.0
  0
CIRCLE
  5
130
330
12D
100
AcDbEntity
  8
CSLAYER1
  6
CONTINUOUS
 62
     4
100
AcDbCircle
 10
213.2124979999999
 20
202.283602
 30
0.0
 40
1.0
  0
CIRCLE
  5
131
330
12D
100
AcDbEntity
  8
CSLAYER1
  6
CONTINUOUS
 62
     4
100
AcDbCircle
 10
213.2124979999999
 20
202.283602
 30
0.0
 40
0.5
  0
LINE
  5
132
330
12D
100
AcDbEntity
  8
CSLAYER1
  6
CONTINUOUS
 62
     4
100
AcDbLine
 10
227.268571
 20
213.128208
 30
0.0
 11
261.268571
 21
213.128208
 31
0.0
  0
TEXT
  5
133
330
12D
100
AcDbEntity
  8
CSLAYER1
 62
     4
100
AcDbText
 10
228.26857
 20
214.128189
 30
0.0
 40
3.2
  1
テフロンコーティング
 41
0.8522727272727268
 51
15.0
  7
FX_FONT
 72
     5
 11
260.26857
 21
214.128189
 31
0.0
100
AcDbText
  0
ENDBLK
  5
134
330
12D
100
AcDbEntity
  8
0
100
AcDbBlockEnd
  0
BLOCK
  5
136
330
135
100
AcDbEntity
  8
0
100
AcDbBlockBegin
  2
*D25
 70
     1
 10
0.0
 20
0.0
 30
0.0
  3
*D25
  1

  0
TEXT
  5
137
330
135
100
AcDbEntity
  8
CSLAYER1
 62
     4
100
AcDbText
 10
73.342323
 20
157.09613
 30
0.0
 40
3.2
  1
（5.5）
 50
90.0
 41
1.08695652173913
 51
15.0
  7
FX_FONT
 72
     5
 11
73.342323
 21
173.09613
 31
0.0
100
AcDbText
  0
LINE
  5
138
330
135
100
AcDbEntity
  8
CSLAYER1
  6
CONTINUOUS
 62
     4
100
AcDbLine
 10
74.898172
 20
158.650172
 30
0.0
 11
74.898172
 21
172.4001719999999
 31
0.0
  0
LINE
  5
139
330
135
100
AcDbEntity
  8
CSLAYER1
  6
CONTINUOUS
 62
     4
100
AcDbLine
 10
74.898172
 20
158.650172
 30
0.0
 11
74.12171500000003
 21
161.547949
 31
0.0
  0
LINE
  5
13A
330
135
100
AcDbEntity
  8
CSLAYER1
  6
CONTINUOUS
 62
     4
100
AcDbLine
 10
74.898172
 20
158.650172
 30
0.0
 11
75.67462900000002
 21
161.547949
 31
0.0
  0
LINE
  5
13B
330
135
100
AcDbEntity
  8
CSLAYER1
  6
CONTINUOUS
 62
     4
100
AcDbLine
 10
74.898172
 20
172.4001719999999
 30
0.0
 11
74.12171500000003
 21
169.5023939999998
 31
0.0
  0
LINE
  5
13C
330
135
100
AcDbEntity
  8
CSLAYER1
  6
CONTINUOUS
 62
     4
100
AcDbLine
 10
74.898172
 20
172.4001719999999
 30
0.0
 11
75.67462900000002
 21
169.5023939999998
 31
0.0
  0
LINE
  5
13D
330
135
100
AcDbEntity
  8
CSLAYER1
  6
CONTINUOUS
 62
     4
100
AcDbLine
 10
52.93620699999999
 20
158.650172
 30
0.0
 11
75.898172
 21
158.650172
 31
0.0
  0
LINE
  5
13E
330
135
100
AcDbEntity
  8
CSLAYER1
  6
CONTINUOUS
 62
     4
100
AcDbLine
 10
52.93620699999999
 20
172.4001719999999
 30
0.0
 11
75.898172
 21
172.4001719999999
 31
0.0
  0
ENDBLK
  5
13F
330
135
100
AcDbEntity
  8
0
100
AcDbBlockEnd
  0
BLOCK
  5
141
330
140
100
AcDbEntity
  8
0
100
AcDbBlockBegin
  2
*D26
 70
     1
 10
0.0
 20
0.0
 30
0.0
  3
*D26
  1

  0
TEXT
  5
142
330
140
100
AcDbEntity
  8
CSLAYER1
 62
     4
100
AcDbText
 10
67.92600999999999
 20
171.817383
 30
0.0
 40
3.2
  1
（0.5）
 50
90.0
 41
1.08695652173913
 51
15.0
  7
FX_FONT
 72
     5
 11
67.92600999999999
 21
187.817383
 31
0.0
100
AcDbText
  0
LINE
  5
143
330
140
100
AcDbEntity
  8
CSLAYER1
  6
CONTINUOUS
 62
     4
100
AcDbLine
 10
68.898172
 20
171.150172
 30
0.0
 11
68.898172
 21
172.4001719999999
 31
0.0
  0
LINE
  5
144
330
140
100
AcDbEntity
  8
CSLAYER1
  6
CONTINUOUS
 62
     4
100
AcDbLine
 10
52.93620699999999
 20
171.150172
 30
0.0
 11
69.898172
 21
171.150172
 31
0.0
  0
LINE
  5
145
330
140
100
AcDbEntity
  8
CSLAYER1
  6
CONTINUOUS
 62
     4
100
AcDbLine
 10
68.898172
 20
165.1501719999999
 30
0.0
 11
68.898172
 21
171.150172
 31
0.0
  0
LINE
  5
146
330
140
100
AcDbEntity
  8
CSLAYER1
  6
CONTINUOUS
 62
     4
100
AcDbLine
 10
68.898172
 20
171.150172
 30
0.0
 11
68.12171500000001
 21
168.2523939999998
 31
0.0
  0
LINE
  5
147
330
140
100
AcDbEntity
  8
CSLAYER1
  6
CONTINUOUS
 62
     4
100
AcDbLine
 10
68.898172
 20
171.150172
 30
0.0
 11
69.67462900000001
 21
168.2523939999998
 31
0.0
  0
LINE
  5
148
330
140
100
AcDbEntity
  8
CSLAYER1
  6
CONTINUOUS
 62
     4
100
AcDbLine
 10
68.898172
 20
172.4001719999999
 30
0.0
 11
68.898172
 21
186.7613719999999
 31
0.0
  0
LINE
  5
149
330
140
100
AcDbEntity
  8
CSLAYER1
  6
CONTINUOUS
 62
     4
100
AcDbLine
 10
68.898172
 20
172.4001719999999
 30
0.0
 11
68.12171500000001
 21
175.2979489999999
 31
0.0
  0
LINE
  5
14A
330
140
100
AcDbEntity
  8
CSLAYER1
  6
CONTINUOUS
 62
     4
100
AcDbLine
 10
68.898172
 20
172.4001719999999
 30
0.0
 11
69.67462900000001
 21
175.2979489999999
 31
0.0
  0
ENDBLK
  5
14B
330
140
100
AcDbEntity
  8
0
100
AcDbBlockEnd
  0
BLOCK
  5
14D
330
14C
100
AcDbEntity
  8
0
100
AcDbBlockBegin
  2
*D27
 70
     1
 10
0.0
 20
0.0
 30
0.0
  3
*D27
  1

  0
TEXT
  5
14E
330
14C
100
AcDbEntity
  8
CSLAYER1
 62
     4
100
AcDbText
 10
116.8716169999999
 20
35.04841199999999
 30
0.0
 40
3.2
  1
45
 41
1.200000000000001
 51
15.0
  7
FX_FONT
 72
     5
 11
123.2716169999999
 21
35.04841199999999
 31
0.0
100
AcDbText
  0
LINE
  5
14F
330
14C
100
AcDbEntity
  8
CSLAYER1
  6
CONTINUOUS
 62
     4
100
AcDbLine
 10
108.8216169999999
 20
34.048414
 30
0.0
 11
131.321617
 21
34.048414
 31
0.0
  0
LINE
  5
150
330
14C
100
AcDbEntity
  8
CSLAYER1
  6
CONTINUOUS
 62
     4
100
AcDbLine
 10
108.8216169999999
 20
34.048414
 30
0.0
 11
111.7193949999997
 21
34.824872
 31
0.0
  0
LINE
  5
151
330
14C
100
AcDbEntity
  8
CSLAYER1
  6
CONTINUOUS
 62
     4
100
AcDbLine
 10
108.8216169999999
 20
34.048414
 30
0.0
 11
111.7193949999997
 21
33.271957
 31
0.0
  0
LINE
  5
152
330
14C
100
AcDbEntity
  8
CSLAYER1
  6
CONTINUOUS
 62
     4
100
AcDbLine
 10
131.321617
 20
34.048414
 30
0.0
 11
128.4238399999999
 21
34.824872
 31
0.0
  0
LINE
  5
153
330
14C
100
AcDbEntity
  8
CSLAYER1
  6
CONTINUOUS
 62
     4
100
AcDbLine
 10
131.321617
 20
34.048414
 30
0.0
 11
128.4238399999999
 21
33.271957
 31
0.0
  0
LINE
  5
154
330
14C
100
AcDbEntity
  8
CSLAYER1
  6
CONTINUOUS
 62
     4
100
AcDbLine
 10
108.8216169999999
 20
49.28916199999999
 30
0.0
 11
108.8216169999999
 21
33.048414
 31
0.0
  0
LINE
  5
155
330
14C
100
AcDbEntity
  8
CSLAYER1
  6
CONTINUOUS
 62
     4
100
AcDbLine
 10
131.321617
 20
49.28916199999999
 30
0.0
 11
131.321617
 21
33.048414
 31
0.0
  0
ENDBLK
  5
156
330
14C
100
AcDbEntity
  8
0
100
AcDbBlockEnd
  0
BLOCK
  5
158
330
157
100
AcDbEntity
  8
0
100
AcDbBlockBegin
  2
*D28
 70
     1
 10
0.0
 20
0.0
 30
0.0
  3
*D28
  1

  0
TEXT
  5
159
330
157
100
AcDbEntity
  8
CSLAYER1
 62
     4
100
AcDbText
 10
258.356689
 20
125.489169
 30
0.0
 40
3.2
  1
320
 50
90.0
 41
1.125
 51
15.0
  7
FX_FONT
 72
     5
 11
258.356689
 21
135.089169
 31
0.0
100
AcDbText
  0
LINE
  5
15A
330
157
100
AcDbEntity
  8
CSLAYER1
  6
CONTINUOUS
 62
     4
100
AcDbLine
 10
259.35669
 20
50.289162
 30
0.0
 11
259.35669
 21
210.289162
 31
0.0
  0
LINE
  5
15B
330
157
100
AcDbEntity
  8
CSLAYER1
  6
CONTINUOUS
 62
     4
100
AcDbLine
 10
259.35669
 20
50.289162
 30
0.0
 11
258.580233
 21
53.186939
 31
0.0
  0
LINE
  5
15C
330
157
100
AcDbEntity
  8
CSLAYER1
  6
CONTINUOUS
 62
     4
100
AcDbLine
 10
259.35669
 20
50.289162
 30
0.0
 11
260.133147
 21
53.186939
 31
0.0
  0
LINE
  5
15D
330
157
100
AcDbEntity
  8
CSLAYER1
  6
CONTINUOUS
 62
     4
100
AcDbLine
 10
259.35669
 20
210.289162
 30
0.0
 11
258.580233
 21
207.391384
 31
0.0
  0
LINE
  5
15E
330
157
100
AcDbEntity
  8
CSLAYER1
  6
CONTINUOUS
 62
     4
100
AcDbLine
 10
259.35669
 20
210.289162
 30
0.0
 11
260.133147
 21
207.391384
 31
0.0
  0
LINE
  5
15F
330
157
100
AcDbEntity
  8
CSLAYER1
  6
CONTINUOUS
 62
     4
100
AcDbLine
 10
226.874912
 20
50.289162
 30
0.0
 11
260.35669
 21
50.289162
 31
0.0
  0
LINE
  5
160
330
157
100
AcDbEntity
  8
CSLAYER1
  6
CONTINUOUS
 62
     4
100
AcDbLine
 10
215.374912
 20
210.289162
 30
0.0
 11
260.35669
 21
210.289162
 31
0.0
  0
ENDBLK
  5
161
330
157
100
AcDbEntity
  8
0
100
AcDbBlockEnd
  0
BLOCK
  5
163
330
162
100
AcDbEntity
  8
0
100
AcDbBlockBegin
  2
*D29
 70
     1
 10
0.0
 20
0.0
 30
0.0
  3
*D29
  1

  0
TEXT
  5
164
330
162
100
AcDbEntity
  8
CSLAYER1
 62
     4
100
AcDbText
 10
252.356674
 20
86.739169
 30
0.0
 40
3.2
  1
165
 50
90.0
 41
1.125000000000001
 51
15.0
  7
FX_FONT
 72
     5
 11
252.356674
 21
96.339169
 31
0.0
100
AcDbText
  0
LINE
  5
165
330
162
100
AcDbEntity
  8
CSLAYER1
  6
CONTINUOUS
 62
     4
100
AcDbLine
 10
253.3566899999999
 20
50.289162
 30
0.0
 11
253.3566899999999
 21
132.789162
 31
0.0
  0
LINE
  5
166
330
162
100
AcDbEntity
  8
CSLAYER1
  6
CONTINUOUS
 62
     4
100
AcDbLine
 10
253.3566899999999
 20
50.289162
 30
0.0
 11
252.580233
 21
53.186939
 31
0.0
  0
LINE
  5
167
330
162
100
AcDbEntity
  8
CSLAYER1
  6
CONTINUOUS
 62
     4
100
AcDbLine
 10
253.3566899999999
 20
50.289162
 30
0.0
 11
254.133147
 21
53.186939
 31
0.0
  0
LINE
  5
168
330
162
100
AcDbEntity
  8
CSLAYER1
  6
CONTINUOUS
 62
     4
100
AcDbLine
 10
253.3566899999999
 20
132.789162
 30
0.0
 11
252.580233
 21
129.891384
 31
0.0
  0
LINE
  5
169
330
162
100
AcDbEntity
  8
CSLAYER1
  6
CONTINUOUS
 62
     4
100
AcDbLine
 10
253.3566899999999
 20
132.789162
 30
0.0
 11
254.133147
 21
129.891384
 31
0.0
  0
LINE
  5
16A
330
162
100
AcDbEntity
  8
CSLAYER1
  6
CONTINUOUS
 62
     4
100
AcDbLine
 10
222.874912
 20
132.789162
 30
0.0
 11
254.35669
 21
132.789162
 31
0.0
  0
ENDBLK
  5
16B
330
162
100
AcDbEntity
  8
0
100
AcDbBlockEnd
  0
BLOCK
  5
16D
330
16C
100
AcDbEntity
  8
0
100
AcDbBlockBegin
  2
*D30
 70
     1
 10
0.0
 20
0.0
 30
0.0
  3
*D30
  1

  0
TEXT
  5
16E
330
16C
100
AcDbEntity
  8
CSLAYER1
 62
     4
100
AcDbText
 10
252.356674
 20
133.8391689999999
 30
0.0
 40
3.2
  1
17
 50
90.0
 41
1.200000000000001
 51
15.0
  7
FX_FONT
 72
     5
 11
252.356674
 21
140.2391689999999
 31
0.0
100
AcDbText
  0
LINE
  5
16F
330
16C
100
AcDbEntity
  8
CSLAYER1
  6
CONTINUOUS
 62
     4
100
AcDbLine
 10
253.3566899999999
 20
132.789162
 30
0.0
 11
253.3566899999999
 21
141.289162
 31
0.0
  0
LINE
  5
170
330
16C
100
AcDbEntity
  8
CSLAYER1
  6
CONTINUOUS
 62
     4
100
AcDbLine
 10
253.3566899999999
 20
132.789162
 30
0.0
 11
252.580233
 21
135.6869389999999
 31
0.0
  0
LINE
  5
171
330
16C
100
AcDbEntity
  8
CSLAYER1
  6
CONTINUOUS
 62
     4
100
AcDbLine
 10
253.3566899999999
 20
132.789162
 30
0.0
 11
254.133147
 21
135.6869389999999
 31
0.0
  0
LINE
  5
172
330
16C
100
AcDbEntity
  8
CSLAYER1
  6
CONTINUOUS
 62
     4
100
AcDbLine
 10
253.3566899999999
 20
141.289162
 30
0.0
 11
252.580233
 21
138.391384
 31
0.0
  0
LINE
  5
173
330
16C
100
AcDbEntity
  8
CSLAYER1
  6
CONTINUOUS
 62
     4
100
AcDbLine
 10
253.3566899999999
 20
141.289162
 30
0.0
 11
254.133147
 21
138.391384
 31
0.0
  0
LINE
  5
174
330
16C
100
AcDbEntity
  8
CSLAYER1
  6
CONTINUOUS
 62
     4
100
AcDbLine
 10
222.874912
 20
141.289162
 30
0.0
 11
254.35669
 21
141.289162
 31
0.0
  0
ENDBLK
  5
175
330
16C
100
AcDbEntity
  8
0
100
AcDbBlockEnd
  0
BLOCK
  5
177
330
176
100
AcDbEntity
  8
0
100
AcDbBlockBegin
  2
*D31
 70
     1
 10
0.0
 20
0.0
 30
0.0
  3
*D31
  1

  0
TEXT
  5
178
330
176
100
AcDbEntity
  8
CSLAYER1
 62
     4
100
AcDbText
 10
248.6869049999999
 20
149.7141939999998
 30
0.0
 40
3.2
  1
5
 50
90.0
 41
1.499999999999994
 51
15.0
  7
FX_FONT
 72
     5
 11
248.6869049999999
 21
152.9141939999998
 31
0.0
100
AcDbText
  0
LINE
  5
179
330
176
100
AcDbEntity
  8
CSLAYER1
  6
CONTINUOUS
 62
     4
100
AcDbLine
 10
253.3566899999999
 20
141.289162
 30
0.0
 11
253.3566899999999
 21
143.789162
 31
0.0
  0
LINE
  5
17A
330
176
100
AcDbEntity
  8
CSLAYER1
  6
CONTINUOUS
 62
     4
100
AcDbLine
 10
222.874912
 20
143.789162
 30
0.0
 11
254.35669
 21
143.789162
 31
0.0
  0
LINE
  5
17B
330
176
100
AcDbEntity
  8
CSLAYER1
  6
CONTINUOUS
 62
     4
100
AcDbLine
 10
253.3566899999999
 20
142.539162
 30
0.0
 11
249.686896
 21
148.714186
 31
0.0
  0
LINE
  5
17C
330
176
100
AcDbEntity
  8
CSLAYER1
  6
CONTINUOUS
 62
     4
100
AcDbLine
 10
249.686896
 20
148.714186
 30
0.0
 11
249.686896
 21
153.9141859999999
 31
0.0
  0
ENDBLK
  5
17D
330
176
100
AcDbEntity
  8
0
100
AcDbBlockEnd
  0
BLOCK
  5
17F
330
17E
100
AcDbEntity
  8
0
100
AcDbBlockBegin
  2
*D32
 70
     1
 10
0.0
 20
0.0
 30
0.0
  3
*D32
  1

  0
TEXT
  5
180
330
17E
100
AcDbEntity
  8
CSLAYER1
 62
     4
100
AcDbText
 10
252.356674
 20
161.339169
 30
0.0
 40
3.2
  1
83
 50
90.0
 41
1.200000000000001
 51
15.0
  7
FX_FONT
 72
     5
 11
252.356674
 21
167.739169
 31
0.0
100
AcDbText
  0
LINE
  5
181
330
17E
100
AcDbEntity
  8
CSLAYER1
  6
CONTINUOUS
 62
     4
100
AcDbLine
 10
253.3566899999999
 20
143.789162
 30
0.0
 11
253.3566899999999
 21
185.289162
 31
0.0
  0
LINE
  5
182
330
17E
100
AcDbEntity
  8
CSLAYER1
  6
CONTINUOUS
 62
     4
100
AcDbLine
 10
253.3566899999999
 20
143.789162
 30
0.0
 11
252.580233
 21
146.686939
 31
0.0
  0
LINE
  5
183
330
17E
100
AcDbEntity
  8
CSLAYER1
  6
CONTINUOUS
 62
     4
100
AcDbLine
 10
253.3566899999999
 20
143.789162
 30
0.0
 11
254.133147
 21
146.686939
 31
0.0
  0
LINE
  5
184
330
17E
100
AcDbEntity
  8
CSLAYER1
  6
CONTINUOUS
 62
     4
100
AcDbLine
 10
253.3566899999999
 20
185.289162
 30
0.0
 11
252.580233
 21
182.391384
 31
0.0
  0
LINE
  5
185
330
17E
100
AcDbEntity
  8
CSLAYER1
  6
CONTINUOUS
 62
     4
100
AcDbLine
 10
253.3566899999999
 20
185.289162
 30
0.0
 11
254.133147
 21
182.391384
 31
0.0
  0
LINE
  5
186
330
17E
100
AcDbEntity
  8
CSLAYER1
  6
CONTINUOUS
 62
     4
100
AcDbLine
 10
222.874912
 20
185.289162
 30
0.0
 11
254.35669
 21
185.289162
 31
0.0
  0
ENDBLK
  5
187
330
17E
100
AcDbEntity
  8
0
100
AcDbBlockEnd
  0
BLOCK
  5
189
330
188
100
AcDbEntity
  8
0
100
AcDbBlockBegin
  2
*D33
 70
     1
 10
0.0
 20
0.0
 30
0.0
  3
*D33
  1

  0
TEXT
  5
18A
330
188
100
AcDbEntity
  8
CSLAYER1
 62
     4
100
AcDbText
 10
252.356674
 20
194.5892
 30
0.0
 40
3.2
  1
50
 50
90.0
 41
1.200000000000001
 51
15.0
  7
FX_FONT
 72
     5
 11
252.356674
 21
200.9892
 31
0.0
100
AcDbText
  0
LINE
  5
18B
330
188
100
AcDbEntity
  8
CSLAYER1
  6
CONTINUOUS
 62
     4
100
AcDbLine
 10
253.3566899999999
 20
185.289162
 30
0.0
 11
253.3566899999999
 21
210.289162
 31
0.0
  0
LINE
  5
18C
330
188
100
AcDbEntity
  8
CSLAYER1
  6
CONTINUOUS
 62
     4
100
AcDbLine
 10
253.3566899999999
 20
185.289162
 30
0.0
 11
252.580233
 21
188.186939
 31
0.0
  0
LINE
  5
18D
330
188
100
AcDbEntity
  8
CSLAYER1
  6
CONTINUOUS
 62
     4
100
AcDbLine
 10
253.3566899999999
 20
185.289162
 30
0.0
 11
254.133147
 21
188.186939
 31
0.0
  0
LINE
  5
18E
330
188
100
AcDbEntity
  8
CSLAYER1
  6
CONTINUOUS
 62
     4
100
AcDbLine
 10
253.3566899999999
 20
210.289162
 30
0.0
 11
252.580233
 21
207.391384
 31
0.0
  0
LINE
  5
18F
330
188
100
AcDbEntity
  8
CSLAYER1
  6
CONTINUOUS
 62
     4
100
AcDbLine
 10
253.3566899999999
 20
210.289162
 30
0.0
 11
254.133147
 21
207.391384
 31
0.0
  0
ENDBLK
  5
190
330
188
100
AcDbEntity
  8
0
100
AcDbBlockEnd
  0
BLOCK
  5
192
330
191
100
AcDbEntity
  8
0
100
AcDbBlockBegin
  2
*D34
 70
     1
 10
0.0
 20
0.0
 30
0.0
  3
*D34
  1

  0
TEXT
  5
193
330
191
100
AcDbEntity
  8
CSLAYER1
 62
     4
100
AcDbText
 10
202.349908
 20
31.784771
 30
0.0
 40
3.2
  1
68.5
 41
1.090909176136357
 51
15.0
  7
FX_FONT
 72
     5
 11
215.1499089999999
 21
31.784771
 31
0.0
100
AcDbText
  0
LINE
  5
194
330
191
100
AcDbEntity
  8
CSLAYER1
  6
CONTINUOUS
 62
     4
100
AcDbLine
 10
191.624912
 20
30.784758
 30
0.0
 11
225.874912
 21
30.784758
 31
0.0
  0
LINE
  5
195
330
191
100
AcDbEntity
  8
CSLAYER1
  6
CONTINUOUS
 62
     4
100
AcDbLine
 10
191.624912
 20
30.784758
 30
0.0
 11
194.5226889999999
 21
31.561216
 31
0.0
  0
LINE
  5
196
330
191
100
AcDbEntity
  8
CSLAYER1
  6
CONTINUOUS
 62
     4
100
AcDbLine
 10
191.624912
 20
30.784758
 30
0.0
 11
194.5226889999999
 21
30.00830099999999
 31
0.0
  0
LINE
  5
197
330
191
100
AcDbEntity
  8
CSLAYER1
  6
CONTINUOUS
 62
     4
100
AcDbLine
 10
225.874912
 20
30.784758
 30
0.0
 11
222.9771339999999
 21
31.561216
 31
0.0
  0
LINE
  5
198
330
191
100
AcDbEntity
  8
CSLAYER1
  6
CONTINUOUS
 62
     4
100
AcDbLine
 10
225.874912
 20
30.784758
 30
0.0
 11
222.9771339999999
 21
30.00830099999999
 31
0.0
  0
LINE
  5
199
330
191
100
AcDbEntity
  8
CSLAYER1
  6
CONTINUOUS
 62
     4
100
AcDbLine
 10
191.624912
 20
49.28916199999999
 30
0.0
 11
191.624912
 21
29.784758
 31
0.0
  0
LINE
  5
19A
330
191
100
AcDbEntity
  8
CSLAYER1
  6
CONTINUOUS
 62
     4
100
AcDbLine
 10
225.874912
 20
49.28916199999999
 30
0.0
 11
225.874912
 21
29.784758
 31
0.0
  0
ENDBLK
  5
19B
330
191
100
AcDbEntity
  8
0
100
AcDbBlockEnd
  0
BLOCK
  5
19D
330
19C
100
AcDbEntity
  8
0
100
AcDbBlockBegin
  2
*D35
 70
     1
 10
0.0
 20
0.0
 30
0.0
  3
*D35
  1

  0
TEXT
  5
19E
330
19C
100
AcDbEntity
  8
CSLAYER1
 62
     4
100
AcDbText
 10
177.8249139999999
 20
37.78475999999999
 30
0.0
 40
3.2
  1
22.5
 41
1.090909176136364
 51
15.0
  7
FX_FONT
 72
     5
 11
190.6249149999999
 21
37.78475999999999
 31
0.0
100
AcDbText
  0
LINE
  5
19F
330
19C
100
AcDbEntity
  8
CSLAYER1
  6
CONTINUOUS
 62
     4
100
AcDbLine
 10
191.624912
 20
36.784758
 30
0.0
 11
202.874912
 21
36.784758
 31
0.0
  0
LINE
  5
1A0
330
19C
100
AcDbEntity
  8
CSLAYER1
  6
CONTINUOUS
 62
     4
100
AcDbLine
 10
202.874912
 20
41.93146399999998
 30
0.0
 11
202.874912
 21
35.784758
 31
0.0
  0
LINE
  5
1A1
330
19C
100
AcDbEntity
  8
CSLAYER1
  6
CONTINUOUS
 62
     4
100
AcDbLine
 10
176.824912
 20
36.784758
 30
0.0
 11
191.624912
 21
36.784758
 31
0.0
  0
LINE
  5
1A2
330
19C
100
AcDbEntity
  8
CSLAYER1
  6
CONTINUOUS
 62
     4
100
AcDbLine
 10
191.624912
 20
36.784758
 30
0.0
 11
188.727134
 21
37.56121599999997
 31
0.0
  0
LINE
  5
1A3
330
19C
100
AcDbEntity
  8
CSLAYER1
  6
CONTINUOUS
 62
     4
100
AcDbLine
 10
191.624912
 20
36.784758
 30
0.0
 11
188.727134
 21
36.008301
 31
0.0
  0
ENDBLK
  5
1A4
330
19C
100
AcDbEntity
  8
0
100
AcDbBlockEnd
  0
BLOCK
  5
1A6
330
1A5
100
AcDbEntity
  8
0
100
AcDbBlockBegin
  2
*D36
 70
     1
 10
0.0
 20
0.0
 30
0.0
  3
*D36
  1

  0
TEXT
  5
1A7
330
1A5
100
AcDbEntity
  8
CSLAYER1
 62
     4
100
AcDbText
 10
211.174908
 20
37.78475999999999
 30
0.0
 40
3.2
  1
46
 41
1.199999999999995
 51
15.0
  7
FX_FONT
 72
     5
 11
217.574908
 21
37.78475999999999
 31
0.0
100
AcDbText
  0
LINE
  5
1A8
330
1A5
100
AcDbEntity
  8
CSLAYER1
  6
CONTINUOUS
 62
     4
100
AcDbLine
 10
202.874912
 20
36.784758
 30
0.0
 11
225.874912
 21
36.784758
 31
0.0
  0
LINE
  5
1A9
330
1A5
100
AcDbEntity
  8
CSLAYER1
  6
CONTINUOUS
 62
     4
100
AcDbLine
 10
202.874912
 20
36.784758
 30
0.0
 11
205.772689
 21
37.56121599999997
 31
0.0
  0
LINE
  5
1AA
330
1A5
100
AcDbEntity
  8
CSLAYER1
  6
CONTINUOUS
 62
     4
100
AcDbLine
 10
202.874912
 20
36.784758
 30
0.0
 11
205.772689
 21
36.008301
 31
0.0
  0
LINE
  5
1AB
330
1A5
100
AcDbEntity
  8
CSLAYER1
  6
CONTINUOUS
 62
     4
100
AcDbLine
 10
225.874912
 20
36.784758
 30
0.0
 11
222.9771339999999
 21
37.56121599999997
 31
0.0
  0
LINE
  5
1AC
330
1A5
100
AcDbEntity
  8
CSLAYER1
  6
CONTINUOUS
 62
     4
100
AcDbLine
 10
225.874912
 20
36.784758
 30
0.0
 11
222.9771339999999
 21
36.008301
 31
0.0
  0
ENDBLK
  5
1AD
330
1A5
100
AcDbEntity
  8
0
100
AcDbBlockEnd
  0
BLOCK
  5
1AF
330
1AE
100
AcDbEntity
  8
0
100
AcDbBlockBegin
  2
FXDIM0004
 70
     0
 10
0.0
 20
0.0
 30
0.0
  3
FXDIM0004
  1

  0
LINE
  5
1B0
330
1AE
100
AcDbEntity
  8
CSLAYER1
  6
CONTINUOUS
 62
     4
100
AcDbLine
 10
293.003667
 20
63.304361
 30
0.0
 11
283.203888
 21
35.838188
 31
0.0
  0
CIRCLE
  5
1B1
330
1AE
100
AcDbEntity
  8
CSLAYER1
  6
CONTINUOUS
 62
     4
100
AcDbCircle
 10
293.003667
 20
63.304361
 30
0.0
 40
1.0
  0
CIRCLE
  5
1B2
330
1AE
100
AcDbEntity
  8
CSLAYER1
  6
CONTINUOUS
 62
     4
100
AcDbCircle
 10
293.003667
 20
63.304361
 30
0.0
 40
0.5
  0
LINE
  5
1B3
330
1AE
100
AcDbEntity
  8
CSLAYER1
  6
CONTINUOUS
 62
     4
100
AcDbLine
 10
283.203888
 20
35.838188
 30
0.0
 11
312.8954629999999
 21
35.838188
 31
0.0
  0
TEXT
  5
1B4
330
1AE
100
AcDbEntity
  8
CSLAYER1
 62
     4
100
AcDbText
 10
287.829358
 20
36.838177
 30
0.0
 40
3.2
  1
電動シリンダー
 41
0.8677685950413152
 51
15.0
  7
FX_FONT
 72
     5
 11
310.2293579999998
 21
36.838177
 31
0.0
100
AcDbText
  0
ENDBLK
  5
1B5
330
1AE
100
AcDbEntity
  8
0
100
AcDbBlockEnd
  0
BLOCK
  5
1B7
330
1B6
100
AcDbEntity
  8
0
100
AcDbBlockBegin
  2
*D38
 70
     1
 10
0.0
 20
0.0
 30
0.0
  3
*D38
  1

  0
TEXT
  5
1B8
330
1B6
100
AcDbEntity
  8
CSLAYER1
 62
     4
100
AcDbText
 10
195.9952059999999
 20
198.2249909999999
 30
0.0
 40
3.2
  1
19
 41
1.200000000000016
 51
15.0
  7
FX_FONT
 72
     5
 11
202.395206
 21
198.2249909999999
 31
0.0
100
AcDbText
  0
LINE
  5
1B9
330
1B6
100
AcDbEntity
  8
CSLAYER1
  6
CONTINUOUS
 62
     4
100
AcDbLine
 10
196.624912
 20
196.273886
 30
0.0
 11
206.124912
 21
196.273886
 31
0.0
  0
LINE
  5
1BA
330
1B6
100
AcDbEntity
  8
CSLAYER1
  6
CONTINUOUS
 62
     4
100
AcDbLine
 10
196.624912
 20
196.273886
 30
0.0
 11
199.5226889999999
 21
197.0503429999999
 31
0.0
  0
LINE
  5
1BB
330
1B6
100
AcDbEntity
  8
CSLAYER1
  6
CONTINUOUS
 62
     4
100
AcDbLine
 10
196.624912
 20
196.273886
 30
0.0
 11
199.5226889999999
 21
195.497429
 31
0.0
  0
LINE
  5
1BC
330
1B6
100
AcDbEntity
  8
CSLAYER1
  6
CONTINUOUS
 62
     4
100
AcDbLine
 10
206.124912
 20
196.273886
 30
0.0
 11
203.227134
 21
197.0503429999999
 31
0.0
  0
LINE
  5
1BD
330
1B6
100
AcDbEntity
  8
CSLAYER1
  6
CONTINUOUS
 62
     4
100
AcDbLine
 10
206.124912
 20
196.273886
 30
0.0
 11
203.227134
 21
195.497429
 31
0.0
  0
LINE
  5
1BE
330
1B6
100
AcDbEntity
  8
CSLAYER1
  6
CONTINUOUS
 62
     4
100
AcDbLine
 10
196.624912
 20
196.039162
 30
0.0
 11
196.624912
 21
197.2738859999999
 31
0.0
  0
ENDBLK
  5
1BF
330
1B6
100
AcDbEntity
  8
0
100
AcDbBlockEnd
  0
BLOCK
  5
1C1
330
1C0
100
AcDbEntity
  8
0
100
AcDbBlockBegin
  2
*D39
 70
     1
 10
0.0
 20
0.0
 30
0.0
  3
*D39
  1

  0
TEXT
  5
1C2
330
1C0
100
AcDbEntity
  8
CSLAYER1
 62
     4
100
AcDbText
 10
178.480927
 20
203.339169
 30
0.0
 40
3.2
  1
15
 50
90.0
 41
1.200000000000001
 51
15.0
  7
FX_FONT
 72
     5
 11
178.480927
 21
209.739169
 31
0.0
100
AcDbText
  0
LINE
  5
1C3
330
1C0
100
AcDbEntity
  8
CSLAYER1
  6
CONTINUOUS
 62
     4
100
AcDbLine
 10
179.4809309999999
 20
202.789162
 30
0.0
 11
179.4809309999999
 21
210.289162
 31
0.0
  0
LINE
  5
1C4
330
1C0
100
AcDbEntity
  8
CSLAYER1
  6
CONTINUOUS
 62
     4
100
AcDbLine
 10
179.4809309999999
 20
202.789162
 30
0.0
 11
178.7044739999999
 21
205.686939
 31
0.0
  0
LINE
  5
1C5
330
1C0
100
AcDbEntity
  8
CSLAYER1
  6
CONTINUOUS
 62
     4
100
AcDbLine
 10
179.4809309999999
 20
202.789162
 30
0.0
 11
180.2573879999999
 21
205.686939
 31
0.0
  0
LINE
  5
1C6
330
1C0
100
AcDbEntity
  8
CSLAYER1
  6
CONTINUOUS
 62
     4
100
AcDbLine
 10
179.4809309999999
 20
210.289162
 30
0.0
 11
178.7044739999999
 21
207.391384
 31
0.0
  0
LINE
  5
1C7
330
1C0
100
AcDbEntity
  8
CSLAYER1
  6
CONTINUOUS
 62
     4
100
AcDbLine
 10
179.4809309999999
 20
210.289162
 30
0.0
 11
180.2573879999999
 21
207.391384
 31
0.0
  0
LINE
  5
1C8
330
1C0
100
AcDbEntity
  8
CSLAYER1
  6
CONTINUOUS
 62
     4
100
AcDbLine
 10
195.374912
 20
202.789162
 30
0.0
 11
178.4809309999999
 21
202.789162
 31
0.0
  0
LINE
  5
1C9
330
1C0
100
AcDbEntity
  8
CSLAYER1
  6
CONTINUOUS
 62
     4
100
AcDbLine
 10
194.374912
 20
210.289162
 30
0.0
 11
178.4809309999999
 21
210.289162
 31
0.0
  0
ENDBLK
  5
1CA
330
1C0
100
AcDbEntity
  8
0
100
AcDbBlockEnd
  0
BLOCK
  5
1CC
330
1CB
100
AcDbEntity
  8
0
100
AcDbBlockBegin
  2
*D40
 70
     1
 10
0.0
 20
0.0
 30
0.0
  3
*D40
  1

  0
TEXT
  5
1CD
330
1CB
100
AcDbEntity
  8
CSLAYER1
 62
     4
100
AcDbText
 10
173.046585
 20
206.072348
 30
0.0
 40
3.2
  1
2
 50
90.0
 41
1.499999999999994
 51
15.0
  7
FX_FONT
 72
     5
 11
173.046585
 21
209.272348
 31
0.0
100
AcDbText
  0
LINE
  5
1CE
330
1CB
100
AcDbEntity
  8
CSLAYER1
  6
CONTINUOUS
 62
     4
100
AcDbLine
 10
179.4809309999999
 20
201.7891619999999
 30
0.0
 11
179.4809309999999
 21
202.789162
 31
0.0
  0
LINE
  5
1CF
330
1CB
100
AcDbEntity
  8
CSLAYER1
  6
CONTINUOUS
 62
     4
100
AcDbLine
 10
194.374912
 20
201.7891619999999
 30
0.0
 11
178.4809309999999
 21
201.7891619999999
 31
0.0
  0
LINE
  5
1D0
330
1CB
100
AcDbEntity
  8
CSLAYER1
  6
CONTINUOUS
 62
     4
100
AcDbLine
 10
179.4809309999999
 20
202.289162
 30
0.0
 11
174.046587
 21
205.072348
 31
0.0
  0
LINE
  5
1D1
330
1CB
100
AcDbEntity
  8
CSLAYER1
  6
CONTINUOUS
 62
     4
100
AcDbLine
 10
174.046587
 20
205.072348
 30
0.0
 11
174.046587
 21
210.2723479999999
 31
0.0
  0
ENDBLK
  5
1D2
330
1CB
100
AcDbEntity
  8
0
100
AcDbBlockEnd
  0
BLOCK
  5
1D4
330
1D3
100
AcDbEntity
  8
0
100
AcDbBlockBegin
  2
*D41
 70
     1
 10
0.0
 20
0.0
 30
0.0
  3
*D41
  1

  0
TEXT
  5
1D5
330
1D3
100
AcDbEntity
  8
CSLAYER1
 62
     4
100
AcDbText
 10
178.480927
 20
198.1891689999999
 30
0.0
 40
3.2
  1
8
 50
90.0
 41
1.499999999999994
 51
15.0
  7
FX_FONT
 72
     5
 11
178.480927
 21
201.3891689999999
 31
0.0
100
AcDbText
  0
LINE
  5
1D6
330
1D3
100
AcDbEntity
  8
CSLAYER1
  6
CONTINUOUS
 62
     4
100
AcDbLine
 10
179.4809309999999
 20
197.789162
 30
0.0
 11
179.4809309999999
 21
201.7891619999999
 31
0.0
  0
CIRCLE
  5
1D7
330
1D3
100
AcDbEntity
  8
CSLAYER1
  6
CONTINUOUS
 62
     4
100
AcDbCircle
 10
179.4809309999999
 20
201.7891619999999
 30
0.0
 40
1.0
  0
CIRCLE
  5
1D8
330
1D3
100
AcDbEntity
  8
CSLAYER1
  6
CONTINUOUS
 62
     4
100
AcDbCircle
 10
179.4809309999999
 20
201.7891619999999
 30
0.0
 40
0.5
  0
LINE
  5
1D9
330
1D3
100
AcDbEntity
  8
CSLAYER1
  6
CONTINUOUS
 62
     4
100
AcDbLine
 10
195.624912
 20
197.789162
 30
0.0
 11
178.4809309999999
 21
197.789162
 31
0.0
  0
ENDBLK
  5
1DA
330
1D3
100
AcDbEntity
  8
0
100
AcDbBlockEnd
  0
BLOCK
  5
1DC
330
1DB
100
AcDbEntity
  8
0
100
AcDbBlockBegin
  2
*D42
 70
     1
 10
0.0
 20
0.0
 30
0.0
  3
*D42
  1

  0
TEXT
  5
1DD
330
1DB
100
AcDbEntity
  8
CSLAYER1
 62
     4
100
AcDbText
 10
178.480927
 20
186.755765
 30
0.0
 40
3.2
  1
12
 50
90.0
 41
1.200000000000001
 51
15.0
  7
FX_FONT
 72
     5
 11
178.480927
 21
193.155765
 31
0.0
100
AcDbText
  0
LINE
  5
1DE
330
1DB
100
AcDbEntity
  8
CSLAYER1
  6
CONTINUOUS
 62
     4
100
AcDbLine
 10
179.4809309999999
 20
191.7891619999999
 30
0.0
 11
179.4809309999999
 21
197.789162
 31
0.0
  0
CIRCLE
  5
1DF
330
1DB
100
AcDbEntity
  8
CSLAYER1
  6
CONTINUOUS
 62
     4
100
AcDbCircle
 10
179.4809309999999
 20
197.789162
 30
0.0
 40
1.0
  0
CIRCLE
  5
1E0
330
1DB
100
AcDbEntity
  8
CSLAYER1
  6
CONTINUOUS
 62
     4
100
AcDbCircle
 10
179.4809309999999
 20
197.789162
 30
0.0
 40
0.5
  0
LINE
  5
1E1
330
1DB
100
AcDbEntity
  8
CSLAYER1
  6
CONTINUOUS
 62
     4
100
AcDbLine
 10
189.624912
 20
191.7891619999999
 30
0.0
 11
178.4809309999999
 21
191.7891619999999
 31
0.0
  0
LINE
  5
1E2
330
1DB
100
AcDbEntity
  8
CSLAYER1
  6
CONTINUOUS
 62
     4
100
AcDbLine
 10
179.4809309999999
 20
188.1223699999999
 30
0.0
 11
179.4809309999999
 21
191.7891619999999
 31
0.0
  0
LINE
  5
1E3
330
1DB
100
AcDbEntity
  8
CSLAYER1
  6
CONTINUOUS
 62
     4
100
AcDbLine
 10
179.4809309999999
 20
191.7891619999999
 30
0.0
 11
178.7044739999999
 21
188.891384
 31
0.0
  0
LINE
  5
1E4
330
1DB
100
AcDbEntity
  8
CSLAYER1
  6
CONTINUOUS
 62
     4
100
AcDbLine
 10
179.4809309999999
 20
191.7891619999999
 30
0.0
 11
180.2573879999999
 21
188.891384
 31
0.0
  0
ENDBLK
  5
1E5
330
1DB
100
AcDbEntity
  8
0
100
AcDbBlockEnd
  0
BLOCK
  5
1E7
330
1E6
100
AcDbEntity
  8
0
100
AcDbBlockBegin
  2
BLKF0000
 70
     0
 10
0.0
 20
0.0
 30
0.0
  3
BLKF0000
  1

  0
LINE
  5
1E8
330
1E6
100
AcDbEntity
  8
CSLAYER1
  6
CONTINUOUS
 62
     3
100
AcDbLine
 10
126.4466169999999
 20
128.789162
 30
0.0
 11
126.4466169999999
 21
126.539162
 31
0.0
  0
LINE
  5
1E9
330
1E6
100
AcDbEntity
  8
CSLAYER1
  6
CONTINUOUS
 62
     3
100
AcDbLine
 10
126.4466169999999
 20
126.539162
 30
0.0
 11
126.6966169999999
 21
126.2891619999999
 31
0.0
  0
LINE
  5
1EA
330
1E6
100
AcDbEntity
  8
CSLAYER1
  6
CONTINUOUS
 62
     3
100
AcDbLine
 10
126.6966169999999
 20
126.2891619999999
 30
0.0
 11
130.4466169999999
 21
126.2891619999999
 31
0.0
  0
LINE
  5
1EB
330
1E6
100
AcDbEntity
  8
CSLAYER1
  6
CONTINUOUS
 62
     3
100
AcDbLine
 10
130.4466169999999
 20
126.2891619999999
 30
0.0
 11
130.696617
 21
126.539162
 31
0.0
  0
LINE
  5
1EC
330
1E6
100
AcDbEntity
  8
CSLAYER1
  6
CONTINUOUS
 62
     3
100
AcDbLine
 10
130.696617
 20
126.539162
 30
0.0
 11
130.696617
 21
128.789162
 31
0.0
  0
LINE
  5
1ED
330
1E6
100
AcDbEntity
  8
CSLAYER1
  6
CONTINUOUS
 62
     3
100
AcDbLine
 10
126.4466169999999
 20
126.539162
 30
0.0
 11
130.696617
 21
126.539162
 31
0.0
  0
LINE
  5
1EE
330
1E6
100
AcDbEntity
  8
CSLAYER1
  6
CONTINUOUS
 62
     3
100
AcDbLine
 10
126.4466169999999
 20
128.789162
 30
0.0
 11
130.696617
 21
128.789162
 31
0.0
  0
ENDBLK
  5
1EF
330
1E6
100
AcDbEntity
  8
0
100
AcDbBlockEnd
  0
BLOCK
  5
1F1
330
1F0
100
AcDbEntity
  8
0
100
AcDbBlockBegin
  2
BLKF0001
 70
     0
 10
0.0
 20
0.0
 30
0.0
  3
BLKF0001
  1

  0
LINE
  5
1F2
330
1F0
100
AcDbEntity
  8
CSLAYER1
  6
CONTINUOUS
 62
     3
100
AcDbLine
 10
113.6966169999999
 20
128.789162
 30
0.0
 11
113.6966169999999
 21
126.539162
 31
0.0
  0
LINE
  5
1F3
330
1F0
100
AcDbEntity
  8
CSLAYER1
  6
CONTINUOUS
 62
     3
100
AcDbLine
 10
113.6966169999999
 20
126.539162
 30
0.0
 11
113.4466169999999
 21
126.2891619999999
 31
0.0
  0
LINE
  5
1F4
330
1F0
100
AcDbEntity
  8
CSLAYER1
  6
CONTINUOUS
 62
     3
100
AcDbLine
 10
113.4466169999999
 20
126.2891619999999
 30
0.0
 11
109.6966169999999
 21
126.2891619999999
 31
0.0
  0
LINE
  5
1F5
330
1F0
100
AcDbEntity
  8
CSLAYER1
  6
CONTINUOUS
 62
     3
100
AcDbLine
 10
109.6966169999999
 20
126.2891619999999
 30
0.0
 11
109.446617
 21
126.539162
 31
0.0
  0
LINE
  5
1F6
330
1F0
100
AcDbEntity
  8
CSLAYER1
  6
CONTINUOUS
 62
     3
100
AcDbLine
 10
109.446617
 20
126.539162
 30
0.0
 11
109.446617
 21
128.789162
 31
0.0
  0
LINE
  5
1F7
330
1F0
100
AcDbEntity
  8
CSLAYER1
  6
CONTINUOUS
 62
     3
100
AcDbLine
 10
113.6966169999999
 20
126.539162
 30
0.0
 11
109.446617
 21
126.539162
 31
0.0
  0
LINE
  5
1F8
330
1F0
100
AcDbEntity
  8
CSLAYER1
  6
CONTINUOUS
 62
     3
100
AcDbLine
 10
113.6966169999999
 20
128.789162
 30
0.0
 11
109.446617
 21
128.789162
 31
0.0
  0
ENDBLK
  5
1F9
330
1F0
100
AcDbEntity
  8
0
100
AcDbBlockEnd
  0
BLOCK
  5
1FB
330
1FA
100
AcDbEntity
  8
0
100
AcDbBlockBegin
  2
BLKF0002
 70
     0
 10
0.0
 20
0.0
 30
0.0
  3
BLKF0002
  1

  0
LINE
  5
1FC
330
1FA
100
AcDbEntity
  8
CSLAYER1
  6
CONTINUOUS
 62
     3
100
AcDbLine
 10
209.249912
 20
128.789162
 30
0.0
 11
209.249912
 21
126.539162
 31
0.0
  0
LINE
  5
1FD
330
1FA
100
AcDbEntity
  8
CSLAYER1
  6
CONTINUOUS
 62
     3
100
AcDbLine
 10
209.249912
 20
126.539162
 30
0.0
 11
209.499912
 21
126.2891619999999
 31
0.0
  0
LINE
  5
1FE
330
1FA
100
AcDbEntity
  8
CSLAYER1
  6
CONTINUOUS
 62
     3
100
AcDbLine
 10
209.499912
 20
126.2891619999999
 30
0.0
 11
213.249912
 21
126.2891619999999
 31
0.0
  0
LINE
  5
1FF
330
1FA
100
AcDbEntity
  8
CSLAYER1
  6
CONTINUOUS
 62
     3
100
AcDbLine
 10
213.249912
 20
126.2891619999999
 30
0.0
 11
213.499912
 21
126.539162
 31
0.0
  0
LINE
  5
200
330
1FA
100
AcDbEntity
  8
CSLAYER1
  6
CONTINUOUS
 62
     3
100
AcDbLine
 10
213.499912
 20
126.539162
 30
0.0
 11
213.499912
 21
128.789162
 31
0.0
  0
LINE
  5
201
330
1FA
100
AcDbEntity
  8
CSLAYER1
  6
CONTINUOUS
 62
     3
100
AcDbLine
 10
209.249912
 20
126.539162
 30
0.0
 11
213.499912
 21
126.539162
 31
0.0
  0
LINE
  5
202
330
1FA
100
AcDbEntity
  8
CSLAYER1
  6
CONTINUOUS
 62
     3
100
AcDbLine
 10
209.249912
 20
128.789162
 30
0.0
 11
213.499912
 21
128.789162
 31
0.0
  0
ENDBLK
  5
203
330
1FA
100
AcDbEntity
  8
0
100
AcDbBlockEnd
  0
BLOCK
  5
205
330
204
100
AcDbEntity
  8
0
100
AcDbBlockBegin
  2
BLKF0003
 70
     0
 10
0.0
 20
0.0
 30
0.0
  3
BLKF0003
  1

  0
LINE
  5
206
330
204
100
AcDbEntity
  8
CSLAYER1
  6
CONTINUOUS
 62
     3
100
AcDbLine
 10
196.499912
 20
128.789162
 30
0.0
 11
196.499912
 21
126.539162
 31
0.0
  0
LINE
  5
207
330
204
100
AcDbEntity
  8
CSLAYER1
  6
CONTINUOUS
 62
     3
100
AcDbLine
 10
196.499912
 20
126.539162
 30
0.0
 11
196.249912
 21
126.2891619999999
 31
0.0
  0
LINE
  5
208
330
204
100
AcDbEntity
  8
CSLAYER1
  6
CONTINUOUS
 62
     3
100
AcDbLine
 10
196.249912
 20
126.2891619999999
 30
0.0
 11
192.499912
 21
126.2891619999999
 31
0.0
  0
LINE
  5
209
330
204
100
AcDbEntity
  8
CSLAYER1
  6
CONTINUOUS
 62
     3
100
AcDbLine
 10
192.499912
 20
126.2891619999999
 30
0.0
 11
192.249912
 21
126.539162
 31
0.0
  0
LINE
  5
20A
330
204
100
AcDbEntity
  8
CSLAYER1
  6
CONTINUOUS
 62
     3
100
AcDbLine
 10
192.249912
 20
126.539162
 30
0.0
 11
192.249912
 21
128.789162
 31
0.0
  0
LINE
  5
20B
330
204
100
AcDbEntity
  8
CSLAYER1
  6
CONTINUOUS
 62
     3
100
AcDbLine
 10
196.499912
 20
126.539162
 30
0.0
 11
192.249912
 21
126.539162
 31
0.0
  0
LINE
  5
20C
330
204
100
AcDbEntity
  8
CSLAYER1
  6
CONTINUOUS
 62
     3
100
AcDbLine
 10
196.499912
 20
128.789162
 30
0.0
 11
192.249912
 21
128.789162
 31
0.0
  0
ENDBLK
  5
20D
330
204
100
AcDbEntity
  8
0
100
AcDbBlockEnd
  0
BLOCK
  5
20F
330
20E
100
AcDbEntity
  8
0
100
AcDbBlockBegin
  2
BLKF0004
 70
     0
 10
0.0
 20
0.0
 30
0.0
  3
BLKF0004
  1

  0
LINE
  5
210
330
20E
100
AcDbEntity
  8
CSLAYER1
  6
CONTINUOUS
 62
     3
100
AcDbLine
 10
308.480154
 20
128.789162
 30
0.0
 11
308.480154
 21
126.539162
 31
0.0
  0
LINE
  5
211
330
20E
100
AcDbEntity
  8
CSLAYER1
  6
CONTINUOUS
 62
     3
100
AcDbLine
 10
308.480154
 20
126.539162
 30
0.0
 11
308.730154
 21
126.2891619999999
 31
0.0
  0
LINE
  5
212
330
20E
100
AcDbEntity
  8
CSLAYER1
  6
CONTINUOUS
 62
     3
100
AcDbLine
 10
308.730154
 20
126.2891619999999
 30
0.0
 11
312.480154
 21
126.2891619999999
 31
0.0
  0
LINE
  5
213
330
20E
100
AcDbEntity
  8
CSLAYER1
  6
CONTINUOUS
 62
     3
100
AcDbLine
 10
312.480154
 20
126.2891619999999
 30
0.0
 11
312.730154
 21
126.539162
 31
0.0
  0
LINE
  5
214
330
20E
100
AcDbEntity
  8
CSLAYER1
  6
CONTINUOUS
 62
     3
100
AcDbLine
 10
312.730154
 20
126.539162
 30
0.0
 11
312.730154
 21
128.789162
 31
0.0
  0
LINE
  5
215
330
20E
100
AcDbEntity
  8
CSLAYER1
  6
CONTINUOUS
 62
     3
100
AcDbLine
 10
308.480154
 20
126.539162
 30
0.0
 11
312.730154
 21
126.539162
 31
0.0
  0
LINE
  5
216
330
20E
100
AcDbEntity
  8
CSLAYER1
  6
CONTINUOUS
 62
     3
100
AcDbLine
 10
308.480154
 20
128.789162
 30
0.0
 11
312.730154
 21
128.789162
 31
0.0
  0
ENDBLK
  5
217
330
20E
100
AcDbEntity
  8
0
100
AcDbBlockEnd
  0
BLOCK
  5
219
330
218
100
AcDbEntity
  8
0
100
AcDbBlockBegin
  2
BLKF0005
 70
     0
 10
0.0
 20
0.0
 30
0.0
  3
BLKF0005
  1

  0
LINE
  5
21A
330
218
100
AcDbEntity
  8
CSLAYER1
  6
CONTINUOUS
 62
     3
100
AcDbLine
 10
295.730154
 20
128.789162
 30
0.0
 11
295.730154
 21
126.539162
 31
0.0
  0
LINE
  5
21B
330
218
100
AcDbEntity
  8
CSLAYER1
  6
CONTINUOUS
 62
     3
100
AcDbLine
 10
295.730154
 20
126.539162
 30
0.0
 11
295.480154
 21
126.2891619999999
 31
0.0
  0
LINE
  5
21C
330
218
100
AcDbEntity
  8
CSLAYER1
  6
CONTINUOUS
 62
     3
100
AcDbLine
 10
295.480154
 20
126.2891619999999
 30
0.0
 11
291.730154
 21
126.2891619999999
 31
0.0
  0
LINE
  5
21D
330
218
100
AcDbEntity
  8
CSLAYER1
  6
CONTINUOUS
 62
     3
100
AcDbLine
 10
291.730154
 20
126.2891619999999
 30
0.0
 11
291.480154
 21
126.539162
 31
0.0
  0
LINE
  5
21E
330
218
100
AcDbEntity
  8
CSLAYER1
  6
CONTINUOUS
 62
     3
100
AcDbLine
 10
291.480154
 20
126.539162
 30
0.0
 11
291.480154
 21
128.789162
 31
0.0
  0
LINE
  5
21F
330
218
100
AcDbEntity
  8
CSLAYER1
  6
CONTINUOUS
 62
     3
100
AcDbLine
 10
295.730154
 20
126.539162
 30
0.0
 11
291.480154
 21
126.539162
 31
0.0
  0
LINE
  5
220
330
218
100
AcDbEntity
  8
CSLAYER1
  6
CONTINUOUS
 62
     3
100
AcDbLine
 10
295.730154
 20
128.789162
 30
0.0
 11
291.480154
 21
128.789162
 31
0.0
  0
ENDBLK
  5
221
330
218
100
AcDbEntity
  8
0
100
AcDbBlockEnd
  0
BLOCK
  5
223
330
222
100
AcDbEntity
  8
0
100
AcDbBlockBegin
  2
BLKF0006
 70
     0
 10
0.0
 20
0.0
 30
0.0
  3
BLKF0006
  1

  0
LINE
  5
224
330
222
100
AcDbEntity
  8
CSLAYER1
  6
CENTER
 62
     4
100
AcDbLine
 10
300.870409
 20
117.573028
 30
0.0
 11
303.1358819999998
 21
117.573028
 31
0.0
  0
CIRCLE
  5
225
330
222
100
AcDbEntity
  8
CSLAYER1
  6
CONTINUOUS
 62
     3
100
AcDbCircle
 10
302.105154
 20
117.573028
 30
0.0
 40
1.375
  0
LINE
  5
226
330
222
100
AcDbEntity
  8
CSLAYER1
  6
CONTINUOUS
 62
     3
100
AcDbLine
 10
301.9051539999998
 20
118.4730279999999
 30
0.0
 11
302.305154
 21
118.4730279999999
 31
0.0
  0
LINE
  5
227
330
222
100
AcDbEntity
  8
CSLAYER1
  6
CONTINUOUS
 62
     3
100
AcDbLine
 10
303.005154
 20
117.773028
 30
0.0
 11
303.005154
 21
117.373028
 31
0.0
  0
LINE
  5
228
330
222
100
AcDbEntity
  8
CSLAYER1
  6
CONTINUOUS
 62
     3
100
AcDbLine
 10
301.9051539999998
 20
116.673028
 30
0.0
 11
302.305154
 21
116.673028
 31
0.0
  0
LINE
  5
229
330
222
100
AcDbEntity
  8
CSLAYER1
  6
CONTINUOUS
 62
     3
100
AcDbLine
 10
301.2051539999998
 20
117.773028
 30
0.0
 11
301.2051539999998
 21
117.373028
 31
0.0
  0
ARC
  5
22A
330
222
100
AcDbEntity
  8
CSLAYER1
  6
CONTINUOUS
 62
     3
100
AcDbCircle
 10
303.005154
 20
118.4730279999999
 30
0.0
 40
0.7
100
AcDbArc
 50
180.0
 51
270.0
  0
ARC
  5
22B
330
222
100
AcDbEntity
  8
CSLAYER1
  6
CONTINUOUS
 62
     3
100
AcDbCircle
 10
301.2051539999998
 20
118.4730279999999
 30
0.0
 40
0.7
100
AcDbArc
 50
270.0
 51
0.0
  0
ARC
  5
22C
330
222
100
AcDbEntity
  8
CSLAYER1
  6
CONTINUOUS
 62
     3
100
AcDbCircle
 10
301.2051539999998
 20
116.673028
 30
0.0
 40
0.7
100
AcDbArc
 50
0.0
 51
90.0
  0
ARC
  5
22D
330
222
100
AcDbEntity
  8
CSLAYER1
  6
CONTINUOUS
 62
     3
100
AcDbCircle
 10
303.005154
 20
116.673028
 30
0.0
 40
0.7
100
AcDbArc
 50
90.0
 51
180.0
  0
ENDBLK
  5
22E
330
222
100
AcDbEntity
  8
0
100
AcDbBlockEnd
  0
BLOCK
  5
230
330
22F
100
AcDbEntity
  8
0
100
AcDbBlockBegin
  2
BLKF0007
 70
     0
 10
0.0
 20
0.0
 30
0.0
  3
BLKF0007
  1

  0
LINE
  5
231
330
22F
100
AcDbEntity
  8
CSLAYER1
  6
CONTINUOUS
 62
     4
100
AcDbLine
 10
216.1678049999999
 20
200.289162
 30
0.0
 11
216.874912
 21
200.996269
 31
0.0
  0
LINE
  5
232
330
22F
100
AcDbEntity
  8
CSLAYER1
  6
CONTINUOUS
 62
     4
100
AcDbLine
 10
215.460698
 20
200.289162
 30
0.0
 11
216.874912
 21
201.7033759999999
 31
0.0
  0
LINE
  5
233
330
22F
100
AcDbEntity
  8
CSLAYER1
  6
CONTINUOUS
 62
     4
100
AcDbLine
 10
214.753591
 20
200.289162
 30
0.0
 11
216.874912
 21
202.410482
 31
0.0
  0
LINE
  5
234
330
22F
100
AcDbEntity
  8
CSLAYER1
  6
CONTINUOUS
 62
     4
100
AcDbLine
 10
214.046485
 20
200.289162
 30
0.0
 11
216.874912
 21
203.1175889999999
 31
0.0
  0
LINE
  5
235
330
22F
100
AcDbEntity
  8
CSLAYER1
  6
CONTINUOUS
 62
     4
100
AcDbLine
 10
213.339378
 20
200.289162
 30
0.0
 11
216.874912
 21
203.8246959999999
 31
0.0
  0
LINE
  5
236
330
22F
100
AcDbEntity
  8
CSLAYER1
  6
CONTINUOUS
 62
     4
100
AcDbLine
 10
212.632271
 20
200.289162
 30
0.0
 11
216.2278479999999
 21
203.8847389999999
 31
0.0
  0
LINE
  5
237
330
22F
100
AcDbEntity
  8
CSLAYER1
  6
CONTINUOUS
 62
     4
100
AcDbLine
 10
211.925164
 20
200.289162
 30
0.0
 11
215.4798129999999
 21
203.84381
 31
0.0
  0
LINE
  5
238
330
22F
100
AcDbEntity
  8
CSLAYER1
  6
CONTINUOUS
 62
     4
100
AcDbLine
 10
211.2180579999999
 20
200.289162
 30
0.0
 11
214.7317779999999
 21
203.802882
 31
0.0
  0
LINE
  5
239
330
22F
100
AcDbEntity
  8
CSLAYER1
  6
CONTINUOUS
 62
     4
100
AcDbLine
 10
210.6169549999999
 20
200.3951659999999
 30
0.0
 11
213.983743
 21
203.761954
 31
0.0
  0
LINE
  5
23A
330
22F
100
AcDbEntity
  8
CSLAYER1
  6
CONTINUOUS
 62
     4
100
AcDbLine
 10
210.344087
 20
200.8294049999999
 30
0.0
 11
212.0391509999999
 21
202.524469
 31
0.0
  0
LINE
  5
23B
330
22F
100
AcDbEntity
  8
CSLAYER1
  6
CONTINUOUS
 62
     4
100
AcDbLine
 10
210.54896
 20
201.741384
 30
0.0
 11
210.927983
 21
202.1204079999999
 31
0.0
  0
ENDBLK
  5
23C
330
22F
100
AcDbEntity
  8
0
100
AcDbBlockEnd
  0
BLOCK
  5
23E
330
23D
100
AcDbEntity
  8
0
100
AcDbBlockBegin
  2
BLKF0008
 70
     0
 10
0.0
 20
0.0
 30
0.0
  3
BLKF0008
  1

  0
LINE
  5
23F
330
23D
100
AcDbEntity
  8
CSLAYER1
  6
CONTINUOUS
 62
     4
100
AcDbLine
 10
209.667805
 20
190.2662559999999
 30
0.0
 11
210.374912
 21
190.9733629999999
 31
0.0
  0
LINE
  5
240
330
23D
100
AcDbEntity
  8
CSLAYER1
  6
CONTINUOUS
 62
     4
100
AcDbLine
 10
208.960698
 20
190.2662559999999
 30
0.0
 11
210.374912
 21
191.6804699999999
 31
0.0
  0
LINE
  5
241
330
23D
100
AcDbEntity
  8
CSLAYER1
  6
CONTINUOUS
 62
     4
100
AcDbLine
 10
208.2535909999999
 20
190.2662559999999
 30
0.0
 11
209.776497
 21
191.7891619999999
 31
0.0
  0
LINE
  5
242
330
23D
100
AcDbEntity
  8
CSLAYER1
  6
CONTINUOUS
 62
     4
100
AcDbLine
 10
207.546485
 20
190.2662559999999
 30
0.0
 11
209.069391
 21
191.7891619999999
 31
0.0
  0
LINE
  5
243
330
23D
100
AcDbEntity
  8
CSLAYER1
  6
CONTINUOUS
 62
     4
100
AcDbLine
 10
206.839378
 20
190.2662559999999
 30
0.0
 11
208.362284
 21
191.7891619999999
 31
0.0
  0
LINE
  5
244
330
23D
100
AcDbEntity
  8
CSLAYER1
  6
CONTINUOUS
 62
     4
100
AcDbLine
 10
206.132271
 20
190.2662559999999
 30
0.0
 11
207.655177
 21
191.7891619999999
 31
0.0
  0
LINE
  5
245
330
23D
100
AcDbEntity
  8
CSLAYER1
  6
CONTINUOUS
 62
     4
100
AcDbLine
 10
205.4251639999999
 20
190.2662559999999
 30
0.0
 11
206.94807
 21
191.7891619999999
 31
0.0
  0
LINE
  5
246
330
23D
100
AcDbEntity
  8
CSLAYER1
  6
CONTINUOUS
 62
     4
100
AcDbLine
 10
204.718058
 20
190.2662559999999
 30
0.0
 11
206.334178
 21
191.8823769999999
 31
0.0
  0
LINE
  5
247
330
23D
100
AcDbEntity
  8
CSLAYER1
  6
CONTINUOUS
 62
     4
100
AcDbLine
 10
204.010951
 20
190.2662559999999
 30
0.0
 11
206.124912
 21
192.3802169999999
 31
0.0
  0
LINE
  5
248
330
23D
100
AcDbEntity
  8
CSLAYER1
  6
CONTINUOUS
 62
     4
100
AcDbLine
 10
203.3038439999999
 20
190.2662559999999
 30
0.0
 11
206.124912
 21
193.087324
 31
0.0
  0
LINE
  5
249
330
23D
100
AcDbEntity
  8
CSLAYER1
  6
CONTINUOUS
 62
     4
100
AcDbLine
 10
202.596737
 20
190.2662559999999
 30
0.0
 11
205.8808239999999
 21
193.550342
 31
0.0
  0
LINE
  5
24A
330
23D
100
AcDbEntity
  8
CSLAYER1
  6
CONTINUOUS
 62
     4
100
AcDbLine
 10
201.88963
 20
190.2662559999999
 30
0.0
 11
204.985074
 21
193.3617
 31
0.0
  0
LINE
  5
24B
330
23D
100
AcDbEntity
  8
CSLAYER1
  6
CONTINUOUS
 62
     4
100
AcDbLine
 10
201.1825239999999
 20
190.2662559999999
 30
0.0
 11
204.0893249999998
 21
193.1730579999999
 31
0.0
  0
LINE
  5
24C
330
23D
100
AcDbEntity
  8
CSLAYER1
  6
CONTINUOUS
 62
     4
100
AcDbLine
 10
200.475417
 20
190.2662559999999
 30
0.0
 11
203.193576
 21
192.9844149999999
 31
0.0
  0
LINE
  5
24D
330
23D
100
AcDbEntity
  8
CSLAYER1
  6
CONTINUOUS
 62
     4
100
AcDbLine
 10
199.76831
 20
190.2662559999999
 30
0.0
 11
202.297827
 21
192.7957729999999
 31
0.0
  0
LINE
  5
24E
330
23D
100
AcDbEntity
  8
CSLAYER1
  6
CONTINUOUS
 62
     4
100
AcDbLine
 10
199.061203
 20
190.2662559999999
 30
0.0
 11
201.426308
 21
192.631361
 31
0.0
  0
LINE
  5
24F
330
23D
100
AcDbEntity
  8
CSLAYER1
  6
CONTINUOUS
 62
     4
100
AcDbLine
 10
198.3540969999999
 20
190.2662559999999
 30
0.0
 11
200.742512
 21
192.654672
 31
0.0
  0
LINE
  5
250
330
23D
100
AcDbEntity
  8
CSLAYER1
  6
CONTINUOUS
 62
     4
100
AcDbLine
 10
197.6469899999999
 20
190.2662559999999
 30
0.0
 11
200.058717
 21
192.677983
 31
0.0
  0
LINE
  5
251
330
23D
100
AcDbEntity
  8
CSLAYER1
  6
CONTINUOUS
 62
     4
100
AcDbLine
 10
196.939883
 20
190.2662559999999
 30
0.0
 11
199.374921
 21
192.701294
 31
0.0
  0
LINE
  5
252
330
23D
100
AcDbEntity
  8
CSLAYER1
  6
CONTINUOUS
 62
     4
100
AcDbLine
 10
197.1375549999999
 20
191.171035
 30
0.0
 11
198.691126
 21
192.7246049999999
 31
0.0
  0
LINE
  5
253
330
23D
100
AcDbEntity
  8
CSLAYER1
  6
CONTINUOUS
 62
     4
100
AcDbLine
 10
197.8617429999999
 20
192.602329
 30
0.0
 11
198.0073299999999
 21
192.7479169999999
 31
0.0
  0
ENDBLK
  5
254
330
23D
100
AcDbEntity
  8
0
100
AcDbBlockEnd
  0
BLOCK
  5
256
330
255
100
AcDbEntity
  8
0
100
AcDbBlockBegin
  2
BLKF0009
 70
     0
 10
0.0
 20
0.0
 30
0.0
  3
BLKF0009
  1

  0
LINE
  5
257
330
255
100
AcDbEntity
  8
CSLAYER1
  6
CONTINUOUS
 62
     3
100
AcDbLine
 10
193.374912
 20
169.239162
 30
0.0
 11
193.374912
 21
170.839162
 31
0.0
  0
LINE
  5
258
330
255
100
AcDbEntity
  8
CSLAYER1
  6
CONTINUOUS
 62
     3
100
AcDbLine
 10
193.374912
 20
170.839162
 30
0.0
 11
193.524912
 21
170.989162
 31
0.0
  0
LINE
  5
259
330
255
100
AcDbEntity
  8
CSLAYER1
  6
CONTINUOUS
 62
     4
100
AcDbLine
 10
193.374912
 20
169.239162
 30
0.0
 11
193.524912
 21
169.239162
 31
0.0
  0
LINE
  5
25A
330
255
100
AcDbEntity
  8
CSLAYER1
  6
CONTINUOUS
 62
     4
100
AcDbLine
 10
193.374912
 20
170.839162
 30
0.0
 11
193.524912
 21
170.839162
 31
0.0
  0
LINE
  5
25B
330
255
100
AcDbEntity
  8
CSLAYER1
  6
CONTINUOUS
 62
     3
100
AcDbLine
 10
193.524912
 20
169.089162
 30
0.0
 11
193.374912
 21
169.239162
 31
0.0
  0
ENDBLK
  5
25C
330
255
100
AcDbEntity
  8
0
100
AcDbBlockEnd
  0
BLOCK
  5
25E
330
25D
100
AcDbEntity
  8
0
100
AcDbBlockBegin
  2
BLKF0010
 70
     0
 10
0.0
 20
0.0
 30
0.0
  3
BLKF0010
  1

  0
LINE
  5
25F
330
25D
100
AcDbEntity
  8
CSLAYER1
  6
DOT
 62
     4
100
AcDbLine
 10
120.0716169999999
 20
180.518436
 30
0.0
 11
120.0716169999999
 21
185.559888
 31
0.0
  0
LINE
  5
260
330
25D
100
AcDbEntity
  8
CSLAYER1
  6
CENTER
 62
     4
100
AcDbLine
 10
122.5923429999999
 20
183.039162
 30
0.0
 11
117.550891
 21
183.039162
 31
0.0
  0
LINE
  5
261
330
25D
100
AcDbEntity
  8
CSLAYER1
  6
DASHED
 62
     4
100
AcDbLine
 10
120.0716169999999
 20
185.0598879999999
 30
0.0
 11
118.3216169999999
 21
184.049525
 31
0.0
  0
LINE
  5
262
330
25D
100
AcDbEntity
  8
CSLAYER1
  6
DASHED
 62
     4
100
AcDbLine
 10
118.3216169999999
 20
184.049525
 30
0.0
 11
118.3216169999999
 21
182.0287989999999
 31
0.0
  0
LINE
  5
263
330
25D
100
AcDbEntity
  8
CSLAYER1
  6
DASHED
 62
     4
100
AcDbLine
 10
118.3216169999999
 20
182.0287989999999
 30
0.0
 11
120.0716169999999
 21
181.018436
 31
0.0
  0
LINE
  5
264
330
25D
100
AcDbEntity
  8
CSLAYER1
  6
DASHED
 62
     4
100
AcDbLine
 10
120.0716169999999
 20
181.018436
 30
0.0
 11
121.8216169999999
 21
182.0287989999999
 31
0.0
  0
LINE
  5
265
330
25D
100
AcDbEntity
  8
CSLAYER1
  6
DASHED
 62
     4
100
AcDbLine
 10
121.8216169999999
 20
182.0287989999999
 30
0.0
 11
121.8216169999999
 21
184.049525
 31
0.0
  0
LINE
  5
266
330
25D
100
AcDbEntity
  8
CSLAYER1
  6
DASHED
 62
     4
100
AcDbLine
 10
121.8216169999999
 20
184.049525
 30
0.0
 11
120.0716169999999
 21
185.0598879999999
 31
0.0
  0
CIRCLE
  5
267
330
25D
100
AcDbEntity
  8
CSLAYER1
  6
DASHED
 62
     4
100
AcDbCircle
 10
120.0716169999999
 20
183.039162
 30
0.0
 40
1.7
  0
CIRCLE
  5
268
330
25D
100
AcDbEntity
  8
CSLAYER1
  6
DASHED
 62
     4
100
AcDbCircle
 10
120.0716169999999
 20
183.039162
 30
0.0
 40
0.8
  0
CIRCLE
  5
269
330
25D
100
AcDbEntity
  8
CSLAYER1
  6
DASHED
 62
     4
100
AcDbCircle
 10
120.0716169999999
 20
183.039162
 30
0.0
 40
1.0
  0
ENDBLK
  5
26A
330
25D
100
AcDbEntity
  8
0
100
AcDbBlockEnd
  0
BLOCK
  5
26C
330
26B
100
AcDbEntity
  8
0
100
AcDbBlockBegin
  2
BLKF0011
 70
     0
 10
0.0
 20
0.0
 30
0.0
  3
BLKF0011
  1

  0
LINE
  5
26D
330
26B
100
AcDbEntity
  8
CSLAYER1
  6
CONTINUOUS
 62
     4
100
AcDbLine
 10
120.0716169999999
 20
167.518436
 30
0.0
 11
120.0716169999999
 21
172.5598879999999
 31
0.0
  0
LINE
  5
26E
330
26B
100
AcDbEntity
  8
CSLAYER1
  6
CENTER
 62
     4
100
AcDbLine
 10
122.5923429999999
 20
170.0391619999997
 30
0.0
 11
117.550891
 21
170.0391619999997
 31
0.0
  0
LINE
  5
26F
330
26B
100
AcDbEntity
  8
CSLAYER1
  6
DASHED
 62
     4
100
AcDbLine
 10
120.0716169999999
 20
172.059888
 30
0.0
 11
119.5716169999997
 21
171.7712129999999
 31
0.0
  0
LINE
  5
270
330
26B
100
AcDbEntity
  8
CSLAYER1
  6
CONTINUOUS
 62
     3
100
AcDbLine
 10
118.3216169999999
 20
171.0495249999999
 30
0.0
 11
118.3216169999999
 21
169.0287989999999
 31
0.0
  0
LINE
  5
271
330
26B
100
AcDbEntity
  8
CSLAYER1
  6
CONTINUOUS
 62
     3
100
AcDbLine
 10
118.3216169999999
 20
169.0287989999999
 30
0.0
 11
119.5716169999997
 21
168.307111
 31
0.0
  0
LINE
  5
272
330
26B
100
AcDbEntity
  8
CSLAYER1
  6
DASHED
 62
     4
100
AcDbLine
 10
120.0716169999999
 20
168.018436
 30
0.0
 11
120.5716169999997
 21
168.307111
 31
0.0
  0
LINE
  5
273
330
26B
100
AcDbEntity
  8
CSLAYER1
  6
CONTINUOUS
 62
     3
100
AcDbLine
 10
121.8216169999999
 20
169.0287989999999
 30
0.0
 11
121.8216169999999
 21
171.0495249999999
 31
0.0
  0
LINE
  5
274
330
26B
100
AcDbEntity
  8
CSLAYER1
  6
CONTINUOUS
 62
     3
100
AcDbLine
 10
121.8216169999999
 20
171.0495249999999
 30
0.0
 11
120.5716169999997
 21
171.7712129999999
 31
0.0
  0
ARC
  5
275
330
26B
100
AcDbEntity
  8
CSLAYER1
  6
CONTINUOUS
 62
     3
100
AcDbCircle
 10
120.0716169999999
 20
170.0391619999997
 30
0.0
 40
1.7
100
AcDbArc
 50
0.0
 51
72.895365
  0
ARC
  5
276
330
26B
100
AcDbEntity
  8
CSLAYER1
  6
CONTINUOUS
 62
     4
100
AcDbCircle
 10
120.0716169999999
 20
170.0391619999997
 30
0.0
 40
0.8
100
AcDbArc
 50
0.0
 51
51.317813
  0
ARC
  5
277
330
26B
100
AcDbEntity
  8
CSLAYER1
  6
CONTINUOUS
 62
     3
100
AcDbCircle
 10
120.0716169999999
 20
170.0391619999997
 30
0.0
 40
1.0
100
AcDbArc
 50
0.0
 51
60.0
  0
LINE
  5
278
330
26B
100
AcDbEntity
  8
CSLAYER1
  6
DASHED
 62
     4
100
AcDbLine
 10
120.5716169999997
 20
171.7712129999999
 30
0.0
 11
120.0716169999999
 21
172.059888
 31
0.0
  0
ARC
  5
279
330
26B
100
AcDbEntity
  8
CSLAYER1
  6
DASHED
 62
     4
100
AcDbCircle
 10
120.0716169999999
 20
170.0391619999997
 30
0.0
 40
1.7
100
AcDbArc
 50
72.895365
 51
107.104635
  0
ARC
  5
27A
330
26B
100
AcDbEntity
  8
CSLAYER1
  6
CONTINUOUS
 62
     3
100
AcDbCircle
 10
120.0716169999999
 20
170.0391619999997
 30
0.0
 40
1.7
100
AcDbArc
 50
107.104635
 51
252.895365
  0
LINE
  5
27B
330
26B
100
AcDbEntity
  8
CSLAYER1
  6
CONTINUOUS
 62
     3
100
AcDbLine
 10
119.5716169999997
 20
171.7712129999999
 30
0.0
 11
118.3216169999999
 21
171.0495249999999
 31
0.0
  0
ARC
  5
27C
330
26B
100
AcDbEntity
  8
CSLAYER1
  6
DASHED
 62
     4
100
AcDbCircle
 10
120.0716169999999
 20
170.0391619999997
 30
0.0
 40
1.7
100
AcDbArc
 50
252.895365
 51
287.104635
  0
LINE
  5
27D
330
26B
100
AcDbEntity
  8
CSLAYER1
  6
CONTINUOUS
 62
     3
100
AcDbLine
 10
120.5716169999997
 20
168.307111
 30
0.0
 11
121.8216169999999
 21
169.0287989999999
 31
0.0
  0
ARC
  5
27E
330
26B
100
AcDbEntity
  8
CSLAYER1
  6
CONTINUOUS
 62
     3
100
AcDbCircle
 10
120.0716169999999
 20
170.0391619999997
 30
0.0
 40
1.7
100
AcDbArc
 50
287.104635
 51
0.0
  0
ARC
  5
27F
330
26B
100
AcDbEntity
  8
CSLAYER1
  6
CONTINUOUS
 62
     3
100
AcDbCircle
 10
120.0716169999999
 20
170.0391619999997
 30
0.0
 40
1.0
100
AcDbArc
 50
300.0
 51
0.0
  0
ARC
  5
280
330
26B
100
AcDbEntity
  8
CSLAYER1
  6
DASHED
 62
     4
100
AcDbCircle
 10
120.0716169999999
 20
170.0391619999997
 30
0.0
 40
1.0
100
AcDbArc
 50
239.9999999999999
 51
300.0
  0
ARC
  5
281
330
26B
100
AcDbEntity
  8
CSLAYER1
  6
DASHED
 62
     4
100
AcDbCircle
 10
120.0716169999999
 20
170.0391619999997
 30
0.0
 40
0.8
100
AcDbArc
 50
231.317813
 51
308.682187
  0
ARC
  5
282
330
26B
100
AcDbEntity
  8
CSLAYER1
  6
CONTINUOUS
 62
     4
100
AcDbCircle
 10
120.0716169999999
 20
170.0391619999997
 30
0.0
 40
0.8
100
AcDbArc
 50
308.682187
 51
0.0
  0
ARC
  5
283
330
26B
100
AcDbEntity
  8
CSLAYER1
  6
DASHED
 62
     4
100
AcDbCircle
 10
120.0716169999999
 20
170.0391619999997
 30
0.0
 40
0.8
100
AcDbArc
 50
51.317813
 51
128.682187
  0
ARC
  5
284
330
26B
100
AcDbEntity
  8
CSLAYER1
  6
CONTINUOUS
 62
     4
100
AcDbCircle
 10
120.0716169999999
 20
170.0391619999997
 30
0.0
 40
0.8
100
AcDbArc
 50
128.682187
 51
231.317813
  0
ARC
  5
285
330
26B
100
AcDbEntity
  8
CSLAYER1
  6
CONTINUOUS
 62
     3
100
AcDbCircle
 10
120.0716169999999
 20
170.0391619999997
 30
0.0
 40
1.0
100
AcDbArc
 50
119.9999999999999
 51
239.9999999999999
  0
ARC
  5
286
330
26B
100
AcDbEntity
  8
CSLAYER1
  6
DASHED
 62
     4
100
AcDbCircle
 10
120.0716169999999
 20
170.0391619999997
 30
0.0
 40
1.0
100
AcDbArc
 50
60.0
 51
119.9999999999999
  0
LINE
  5
287
330
26B
100
AcDbEntity
  8
CSLAYER1
  6
DASHED
 62
     4
100
AcDbLine
 10
119.5716169999997
 20
168.307111
 30
0.0
 11
120.0716169999999
 21
168.018436
 31
0.0
  0
ENDBLK
  5
288
330
26B
100
AcDbEntity
  8
0
100
AcDbBlockEnd
  0
BLOCK
  5
28A
330
289
100
AcDbEntity
  8
0
100
AcDbBlockBegin
  2
BLKF0012
 70
     0
 10
0.0
 20
0.0
 30
0.0
  3
BLKF0012
  1

  0
LINE
  5
28B
330
289
100
AcDbEntity
  8
CSLAYER1
  6
CONTINUOUS
 62
     3
100
AcDbLine
 10
193.374912
 20
182.239162
 30
0.0
 11
193.374912
 21
183.839162
 31
0.0
  0
LINE
  5
28C
330
289
100
AcDbEntity
  8
CSLAYER1
  6
CONTINUOUS
 62
     3
100
AcDbLine
 10
193.374912
 20
183.839162
 30
0.0
 11
193.524912
 21
183.989162
 31
0.0
  0
LINE
  5
28D
330
289
100
AcDbEntity
  8
CSLAYER1
  6
CONTINUOUS
 62
     4
100
AcDbLine
 10
193.374912
 20
182.239162
 30
0.0
 11
193.524912
 21
182.239162
 31
0.0
  0
LINE
  5
28E
330
289
100
AcDbEntity
  8
CSLAYER1
  6
CONTINUOUS
 62
     4
100
AcDbLine
 10
193.374912
 20
183.839162
 30
0.0
 11
193.524912
 21
183.839162
 31
0.0
  0
LINE
  5
28F
330
289
100
AcDbEntity
  8
CSLAYER1
  6
CONTINUOUS
 62
     3
100
AcDbLine
 10
193.524912
 20
182.089162
 30
0.0
 11
193.374912
 21
182.239162
 31
0.0
  0
ENDBLK
  5
290
330
289
100
AcDbEntity
  8
0
100
AcDbBlockEnd
  0
BLOCK
  5
648
330
63B
100
AcDbEntity
  8
0
100
AcDbBlockBegin
  2
*D56
 70
     1
 10
0.0
 20
0.0
 30
0.0
  3
*D56
  1

  0
LINE
  5
63C
330
63B
100
AcDbEntity
  8
CSLAYER1
 62
     0
100
AcDbLine
 10
49.24831802868801
 20
167.3449877747219
 30
0.0
 11
32.6624364602021
 21
136.1514795003039
 31
0.0
  0
LINE
  5
63D
330
63B
100
AcDbEntity
  8
CSLAYER1
 62
     0
100
AcDbLine
 10
51.936207
 20
153.2755139999999
 30
0.0
 11
51.93620699999998
 21
131.3459890370143
 31
0.0
  0
ARC
  5
63E
330
63B
100
AcDbEntity
  8
CSLAYER1
 62
     0
100
AcDbCircle
 10
51.93620699999999
 20
172.4001719999999
 30
0.0
 40
40.87418296298563
100
AcDbArc
 50
242.2523183512011
 51
255.4532557705261
  0
ARC
  5
63F
330
63B
100
AcDbEntity
  8
CSLAYER1
 62
     0
100
AcDbCircle
 10
51.93620699999999
 20
172.4001719999999
 30
0.0
 40
40.87418296298563
100
AcDbArc
 50
256.545447856432
 51
269.7476830630406
  0
SOLID
  5
640
330
63B
100
AcDbEntity
  8
CSLAYER1
 62
     0
100
AcDbTrace
 10
32.89203180283828
 20
136.1997359669335
 30
0.0
 11
32.92008337839329
 21
136.2527747179451
 31
0.0
 12
32.74694133758066
 22
136.3104100691044
 32
0.0
 13
32.74694133758066
 23
136.3104100691044
 33
0.0
  0
SOLID
  5
641
330
63B
100
AcDbEntity
  8
CSLAYER1
 62
     0
100
AcDbTrace
 10
51.75627349271112
 20
131.5563853024876
 30
0.0
 11
51.75614137997861
 21
131.4963854479357
 31
0.0
 12
51.93620699999998
 22
131.5259890370142
 32
0.0
 13
51.93620699999998
 23
131.5259890370142
 33
0.0
  0
MTEXT
  5
642
330
63B
100
AcDbEntity
  8
CSLAYER1
 62
     0
100
AcDbMText
 10
42.04784766597478
 20
132.7401268339538
 30
0.0
 40
0.18
 41
0.0
 71
     5
 72
     1
  1
\A1;28°
1001
ACAD
1000
MTEXTBEGIN
1070
    73
1070
     1
1070
    44
1040
1.0
1070
    74
1070
     0
1000
MTEXTEND
1000
MTEXTBEGIN
1070
    73
1070
     1
1070
    44
1040
1.0
1070
    74
1070
     0
1000
MTEXTEND
  0
POINT
  5
643
330
63B
100
AcDbEntity
  8
DEFPOINTS
 62
     0
100
AcDbPoint
 10
38.85394013155181
 20
133.6761080800764
 30
0.0
  0
POINT
  5
644
330
63B
100
AcDbEntity
  8
DEFPOINTS
 62
     0
100
AcDbPoint
 10
51.936207
 20
172.4001719999999
 30
0.0
  0
POINT
  5
645
330
63B
100
AcDbEntity
  8
DEFPOINTS
 62
     0
100
AcDbPoint
 10
51.93620699999999
 20
153.338014
 30
0.0
  0
POINT
  5
646
330
63B
100
AcDbEntity
  8
DEFPOINTS
 62
     0
100
AcDbPoint
 10
51.936207
 20
158.650172
 30
0.0
  0
POINT
  5
647
330
63B
100
AcDbEntity
  8
DEFPOINTS
 62
     0
100
AcDbPoint
 10
49.27766000000001
 20
167.4001719999999
 30
0.0
  0
ENDBLK
  5
649
330
63B
100
AcDbEntity
  8
0
100
AcDbBlockEnd
  0
BLOCK
  5
657
330
64A
100
AcDbEntity
  8
0
100
AcDbBlockBegin
  2
*D57
 70
     1
 10
0.0
 20
0.0
 30
0.0
  3
*D57
  1

  0
LINE
  5
64B
330
64A
100
AcDbEntity
  8
CSLAYER1
 62
     0
100
AcDbLine
 10
44.5344047425991
 20
154.368184210634
 30
0.0
 11
39.83441153859315
 21
141.4550579458944
 31
0.0
  0
LINE
  5
64C
330
64A
100
AcDbEntity
  8
CSLAYER1
 62
     0
100
AcDbLine
 10
51.93620700000001
 20
153.2755139999999
 30
0.0
 11
51.93620699999996
 21
139.3211850564314
 31
0.0
  0
ARC
  5
64D
330
64A
100
AcDbEntity
  8
CSLAYER1
 62
     0
100
AcDbCircle
 10
51.93620700000001
 20
174.7044704535561
 30
0.0
 40
35.20328539712474
100
AcDbArc
 50
250.2929642759752
 51
259.3995131824434
  0
ARC
  5
64E
330
64A
100
AcDbEntity
  8
CSLAYER1
 62
     0
100
AcDbCircle
 10
51.93620700000001
 20
174.7044704535561
 30
0.0
 40
35.20328539712474
100
AcDbArc
 50
260.5993806346627
 51
269.7070372429512
  0
SOLID
  5
64F
330
64A
100
AcDbEntity
  8
CSLAYER1
 62
     0
100
AcDbTrace
 10
40.05508817475224
 20
141.5348547121458
 30
0.0
 11
40.07546517085428
 21
141.5912885497776
 31
0.0
 12
39.89597515990772
 22
141.6242026192677
 32
0.0
 13
39.89597515990772
 23
141.6242026192677
 33
0.0
  0
SOLID
  5
650
330
64A
100
AcDbEntity
  8
CSLAYER1
 62
     0
100
AcDbTrace
 10
51.75628428563675
 20
139.5316451427109
 30
0.0
 11
51.75613089086296
 21
139.4716453387944
 31
0.0
 12
51.93620699999998
 22
139.5011850564314
 32
0.0
 13
51.93620699999998
 23
139.5011850564314
 33
0.0
  0
MTEXT
  5
651
330
64A
100
AcDbEntity
  8
CSLAYER1
 62
     0
100
AcDbMText
 10
45.82322110243561
 20
140.0360019819378
 30
0.0
 40
0.18
 41
0.0
 71
     5
 72
     1
  1
\A1;20°
1001
ACAD
1000
MTEXTBEGIN
1070
    73
1070
     1
1070
    44
1040
1.0
1070
    74
1070
     0
1000
MTEXTEND
1000
MTEXTBEGIN
1070
    73
1070
     1
1070
    44
1040
1.0
1070
    74
1070
     0
1000
MTEXTEND
  0
POINT
  5
652
330
64A
100
AcDbEntity
  8
DEFPOINTS
 62
     0
100
AcDbPoint
 10
43.81777129054256
 20
140.450094026845
 30
0.0
  0
POINT
  5
653
330
64A
100
AcDbEntity
  8
DEFPOINTS
 62
     0
100
AcDbPoint
 10
49.27766
 20
167.4001719999999
 30
0.0
  0
POINT
  5
654
330
64A
100
AcDbEntity
  8
DEFPOINTS
 62
     0
100
AcDbPoint
 10
51.93620700000001
 20
153.338014
 30
0.0
  0
POINT
  5
655
330
64A
100
AcDbEntity
  8
DEFPOINTS
 62
     0
100
AcDbPoint
 10
51.93620700000001
 20
158.650172
 30
0.0
  0
POINT
  5
656
330
64A
100
AcDbEntity
  8
DEFPOINTS
 62
     0
100
AcDbPoint
 10
44.55578100000001
 20
154.4269149999998
 30
0.0
  0
ENDBLK
  5
658
330
64A
100
AcDbEntity
  8
0
100
AcDbBlockEnd
  0
BLOCK
  5
665
330
659
100
AcDbEntity
  8
0
100
AcDbBlockBegin
  2
*D58
 70
     1
 10
0.0
 20
0.0
 30
0.0
  3
*D58
  1

  0
ARC
  5
65A
330
659
100
AcDbEntity
  8
CSLAYER1
 62
     0
100
AcDbCircle
 10
51.936207
 20
171.150172
 30
0.0
 40
10.61413420806073
100
AcDbArc
 50
266.02833646651
 51
266.999999693814
  0
LINE
  5
65B
330
659
100
AcDbEntity
  8
CSLAYER1
 62
     0
100
AcDbLine
 10
51.20103910437257
 20
160.5615284064151
 30
0.0
 11
51.02103910437257
 21
160.5615284064151
 31
0.0
  0
ARC
  5
65C
330
659
100
AcDbEntity
  8
CSLAYER1
 62
     0
100
AcDbCircle
 10
51.93620699999999
 20
171.150172
 30
0.0
 40
10.61413420806073
100
AcDbArc
 50
267.9716629211183
 51
269.0283367726955
  0
SOLID
  5
65D
330
659
100
AcDbEntity
  8
CSLAYER1
 62
     0
100
AcDbTrace
 10
51.55921681944531
 20
160.5127170154389
 30
0.0
 11
51.56184880590526
 21
160.5726592597016
 31
0.0
 12
51.38070607988654
 22
160.5505840969501
 32
0.0
 13
51.38070607988654
 23
160.5505840969501
 33
0.0
  0
SOLID
  5
65E
330
659
100
AcDbEntity
  8
CSLAYER1
 62
     0
100
AcDbTrace
 10
51.75646784871204
 20
160.5675629801907
 30
0.0
 11
51.75595909313255
 21
160.5075651371648
 31
0.0
 12
51.93620699999999
 22
160.5360377919391
 32
0.0
 13
51.93620699999999
 23
160.5360377919391
 33
0.0
  0
MTEXT
  5
65F
330
659
100
AcDbEntity
  8
CSLAYER1
 62
     0
100
AcDbMText
 10
50.73303910437257
 20
160.5615284064151
 30
0.0
 40
0.18
 41
0.0
 71
     5
 72
     1
  1
\A1;3°
1001
ACAD
1000
MTEXTBEGIN
1070
    73
1070
     1
1070
    44
1040
1.0
1070
    74
1070
     0
1000
MTEXTEND
1000
MTEXTBEGIN
1070
    73
1070
     1
1070
    44
1040
1.0
1070
    74
1070
     0
1000
MTEXTEND
  0
POINT
  5
660
330
659
100
AcDbEntity
  8
DEFPOINTS
 62
     0
100
AcDbPoint
 10
51.75096479691678
 20
160.5376543763198
 30
0.0
  0
POINT
  5
661
330
659
100
AcDbEntity
  8
DEFPOINTS
 62
     0
100
AcDbPoint
 10
51.936207
 20
171.150172
 30
0.0
  0
POINT
  5
662
330
659
100
AcDbEntity
  8
DEFPOINTS
 62
     0
100
AcDbPoint
 10
51.936207
 20
160.274768
 30
0.0
  0
POINT
  5
663
330
659
100
AcDbEntity
  8
DEFPOINTS
 62
     0
100
AcDbPoint
 10
51.936207
 20
171.150172
 30
0.0
  0
POINT
  5
664
330
659
100
AcDbEntity
  8
DEFPOINTS
 62
     0
100
AcDbPoint
 10
51.295988
 20
158.934067
 30
0.0
  0
ENDBLK
  5
666
330
659
100
AcDbEntity
  8
0
100
AcDbBlockEnd
  0
ENDSEC
  0
SECTION
  2
ENTITIES
  0
POINT
  5
291
330
1E
100
AcDbEntity
  8
CSLAYER1
 62
     3
100
AcDbPoint
 10
20.000004
 20
5.999998
 30
0.0
  0
TEXT
  5
292
330
1E
100
AcDbEntity
  8
CSLAYER1
 62
     3
100
AcDbText
 10
702.098706
 20
18.274514
 30
0.0
 40
6.4
  1
NKHD20AR-10
 41
1.031249999999999
  7
FX_FONT
 72
     5
 11
772.498706
 21
18.274514
 31
0.0
100
AcDbText
  0
LINE
  5
293
330
1E
100
AcDbEntity
  8
CSLAYER1
  6
CONTINUOUS
 62
     3
100
AcDbLine
 10
383.249824
 20
100.5783239999999
 30
0.0
 11
383.249824
 21
370.578324
 31
0.0
  0
LINE
  5
294
330
1E
100
AcDbEntity
  8
CSLAYER1
  6
CONTINUOUS
 62
     3
100
AcDbLine
 10
103.872414
 20
342.300344
 30
0.0
 11
103.872414
 21
344.8003439999998
 31
0.0
  0
LINE
  5
295
330
1E
100
AcDbEntity
  8
CSLAYER1
  6
CONTINUOUS
 62
     3
100
AcDbLine
 10
103.872414
 20
344.8003439999998
 30
0.0
 11
98.55532
 21
334.8003439999998
 31
0.0
  0
LINE
  5
296
330
1E
100
AcDbEntity
  8
CSLAYER1
  6
CONTINUOUS
 62
     3
100
AcDbLine
 10
98.55532
 20
334.8003439999998
 30
0.0
 11
89.111562
 21
308.8538299999996
 31
0.0
  0
LINE
  5
297
330
1E
100
AcDbEntity
  8
CSLAYER1
  6
CONTINUOUS
 62
     3
100
AcDbLine
 10
103.872414
 20
306.676028
 30
0.0
 11
103.872414
 21
317.300344
 31
0.0
  0
LINE
  5
298
330
1E
100
AcDbEntity
  8
CSLAYER1
  6
CONTINUOUS
 62
     3
100
AcDbLine
 10
103.872414
 20
317.300344
 30
0.0
 11
103.065124
 21
317.3426519999998
 31
0.0
  0
ARC
  5
299
330
1E
100
AcDbEntity
  8
CSLAYER1
  6
CONTINUOUS
 62
     3
100
AcDbCircle
 10
103.091292
 20
317.841966
 30
0.0
 40
0.5
100
AcDbArc
 50
177.0
 51
267.0
  0
LINE
  5
29A
330
1E
100
AcDbEntity
  8
CSLAYER1
  6
CONTINUOUS
 62
     3
100
AcDbLine
 10
102.591976
 20
317.868134
 30
0.0
 11
103.872414
 21
342.300344
 31
0.0
  0
LINE
  5
29B
330
1E
100
AcDbEntity
  8
CSLAYER1
  6
CONTINUOUS
 62
     3
100
AcDbLine
 10
104.622414
 20
366.28216
 30
0.0
 11
104.622414
 21
390.714178
 31
0.0
  0
ARC
  5
29C
330
1E
100
AcDbEntity
  8
CSLAYER1
  6
CONTINUOUS
 62
     3
100
AcDbCircle
 10
-375.598874
 20
218.693644
 30
0.0
 40
500.0
100
AcDbArc
 50
17.168153
 51
19.869865
  0
LINE
  5
29D
330
1E
100
AcDbEntity
  8
CSLAYER1
  6
CONTINUOUS
 62
     3
100
AcDbLine
 10
102.122414
 20
366.28216
 30
0.0
 11
104.622414
 21
366.28216
 31
0.0
  0
LINE
  5
29F
330
1E
100
AcDbEntity
  8
CSLAYER1
  6
CONTINUOUS
 62
     3
100
AcDbLine
 10
380.598342
 20
353.078324
 30
0.0
 11
376.689772
 21
353.078324
 31
0.0
  0
LINE
  5
2A0
330
1E
100
AcDbEntity
  8
CSLAYER1
  6
CONTINUOUS
 62
     3
100
AcDbLine
 10
443.749824
 20
370.578324
 30
0.0
 11
443.749824
 21
265.578324
 31
0.0
  0
LINE
  5
2A1
330
1E
100
AcDbEntity
  8
CSLAYER1
  6
CONTINUOUS
 62
     3
100
AcDbLine
 10
454.0877459999999
 20
353.078324
 30
0.0
 11
450.179174
 21
353.078324
 31
0.0
  0
LINE
  5
2A2
330
1E
100
AcDbEntity
  8
CSLAYER1
  6
CENTER
 62
     4
100
AcDbLine
 10
405.749824
 20
87.09406599999999
 30
0.0
 11
405.749824
 21
427.955792
 31
0.0
  0
LINE
  5
2A3
330
1E
100
AcDbEntity
  8
CSLAYER1
  6
CONTINUOUS
 62
     4
100
AcDbLine
 10
452.1334599999998
 20
346.351834
 30
0.0
 11
452.1334599999998
 21
353.078324
 31
0.0
  0
LINE
  5
2A4
330
1E
100
AcDbEntity
  8
CSLAYER1
  6
CONTINUOUS
 62
     4
100
AcDbLine
 10
452.1334599999998
 20
353.078324
 30
0.0
 11
450.5805459999998
 21
347.282768
 31
0.0
  0
LINE
  5
2A5
330
1E
100
AcDbEntity
  8
CSLAYER1
  6
CONTINUOUS
 62
     4
100
AcDbLine
 10
452.1334599999998
 20
353.078324
 30
0.0
 11
453.686374
 21
347.282768
 31
0.0
  0
LINE
  5
2A6
330
1E
100
AcDbEntity
  8
CSLAYER1
  6
CONTINUOUS
 62
     3
100
AcDbLine
 10
260.143234
 20
265.578324
 30
0.0
 11
260.143234
 21
325.5783239999995
 31
0.0
  0
LINE
  5
2A7
330
1E
100
AcDbEntity
  8
CSLAYER1
  6
CENTER
 62
     4
100
AcDbLine
 10
240.1432339999998
 20
92.08653599999998
 30
0.0
 11
240.1432339999998
 21
427.87269
 31
0.0
  0
LINE
  5
2AE
330
1E
100
AcDbEntity
  8
CSLAYER1
  6
CONTINUOUS
 62
     3
100
AcDbLine
 10
584.210308
 20
265.578324
 30
0.0
 11
584.210308
 21
325.5783239999995
 31
0.0
  0
LINE
  5
2AF
330
1E
100
AcDbEntity
  8
CSLAYER1
  6
CONTINUOUS
 62
     3
100
AcDbLine
 10
584.210308
 20
325.5783239999995
 30
0.0
 11
616.210308
 21
325.5783239999995
 31
0.0
  0
LINE
  5
2B0
330
1E
100
AcDbEntity
  8
CSLAYER1
  6
CONTINUOUS
 62
     3
100
AcDbLine
 10
615.610308
 20
325.5783239999995
 30
0.0
 11
615.610308
 21
334.078324
 31
0.0
  0
LINE
  5
2B1
330
1E
100
AcDbEntity
  8
CSLAYER1
  6
CONTINUOUS
 62
     3
100
AcDbLine
 10
615.710308
 20
334.378324
 30
0.0
 11
600.710308
 21
334.378324
 31
0.0
  0
LINE
  5
2B2
330
1E
100
AcDbEntity
  8
CSLAYER1
  6
CONTINUOUS
 62
     3
100
AcDbLine
 10
600.710308
 20
334.378324
 30
0.0
 11
600.710308
 21
335.578324
 31
0.0
  0
LINE
  5
2B3
330
1E
100
AcDbEntity
  8
CSLAYER1
  6
CONTINUOUS
 62
     3
100
AcDbLine
 10
600.210308
 20
334.078324
 30
0.0
 11
600.210308
 21
420.578324
 31
0.0
  0
LINE
  5
2B4
330
1E
100
AcDbEntity
  8
CSLAYER1
  6
CONTINUOUS
 62
     3
100
AcDbLine
 10
608.210308
 20
420.578324
 30
0.0
 11
600.210308
 21
420.578324
 31
0.0
  0
LINE
  5
2B5
330
1E
100
AcDbEntity
  8
CSLAYER1
  6
CONTINUOUS
 62
     3
100
AcDbLine
 10
608.210308
 20
420.578324
 30
0.0
 11
608.210308
 21
371.7783239999998
 31
0.0
  0
ARC
  5
2B6
330
1E
100
AcDbEntity
  8
CSLAYER1
  6
CONTINUOUS
 62
     3
100
AcDbCircle
 10
610.5306279999996
 20
372.538418
 30
0.0
 40
1.0
100
AcDbArc
 50
106.257028
 51
175.0
  0
ARC
  5
2B7
330
1E
100
AcDbEntity
  8
CSLAYER1
  6
CONTINUOUS
 62
     3
100
AcDbCircle
 10
612.210308
 20
366.7783239999998
 30
0.0
 40
7.0
100
AcDbArc
 50
73.742972
 51
106.257028
  0
ARC
  5
2B8
330
1E
100
AcDbEntity
  8
CSLAYER1
  6
CONTINUOUS
 62
     3
100
AcDbCircle
 10
613.88999
 20
372.538418
 30
0.0
 40
1.0
100
AcDbArc
 50
5.0
 51
73.742972
  0
LINE
  5
2B9
330
1E
100
AcDbEntity
  8
CSLAYER1
  6
CONTINUOUS
 62
     3
100
AcDbLine
 10
614.8861839999995
 20
372.625572
 30
0.0
 11
614.960308
 21
371.7783239999998
 31
0.0
  0
LINE
  5
2BA
330
1E
100
AcDbEntity
  8
CSLAYER1
  6
CONTINUOUS
 62
     3
100
AcDbLine
 10
615.710308
 20
371.7783239999998
 30
0.0
 11
600.710308
 21
371.7783239999998
 31
0.0
  0
LINE
  5
2BB
330
1E
100
AcDbEntity
  8
CSLAYER1
  6
CONTINUOUS
 62
     3
100
AcDbLine
 10
600.710308
 20
371.7783239999998
 30
0.0
 11
600.710308
 21
370.578324
 31
0.0
  0
LINE
  5
2BC
330
1E
100
AcDbEntity
  8
CSLAYER1
  6
CONTINUOUS
 62
     3
100
AcDbLine
 10
595.710308
 20
370.578324
 30
0.0
 11
595.710308
 21
335.578324
 31
0.0
  0
LINE
  5
2BD
330
1E
100
AcDbEntity
  8
CSLAYER1
  6
CONTINUOUS
 62
     3
100
AcDbLine
 10
594.610308
 20
334.078324
 30
0.0
 11
594.610308
 21
325.5783239999995
 31
0.0
  0
LINE
  5
2BE
330
1E
100
AcDbEntity
  8
CSLAYER1
  6
CONTINUOUS
 62
     3
100
AcDbLine
 10
594.610308
 20
334.078324
 30
0.0
 11
616.210308
 21
334.078324
 31
0.0
  0
LINE
  5
2BF
330
1E
100
AcDbEntity
  8
CSLAYER1
  6
CONTINUOUS
 62
     3
100
AcDbLine
 10
615.710308
 20
334.378324
 30
0.0
 11
615.710308
 21
335.578324
 31
0.0
  0
LINE
  5
2C0
330
1E
100
AcDbEntity
  8
CSLAYER1
  6
CONTINUOUS
 62
     3
100
AcDbLine
 10
616.210308
 20
335.578324
 30
0.0
 11
591.710308
 21
335.578324
 31
0.0
  0
LINE
  5
2C1
330
1E
100
AcDbEntity
  8
CSLAYER1
  6
CONTINUOUS
 62
     3
100
AcDbLine
 10
591.710308
 20
335.578324
 30
0.0
 11
591.710308
 21
370.578324
 31
0.0
  0
LINE
  5
2C2
330
1E
100
AcDbEntity
  8
CSLAYER1
  6
CONTINUOUS
 62
     3
100
AcDbLine
 10
591.710308
 20
370.578324
 30
0.0
 11
624.210308
 21
370.578324
 31
0.0
  0
LINE
  5
2C3
330
1E
100
AcDbEntity
  8
CSLAYER1
  6
CONTINUOUS
 62
     3
100
AcDbLine
 10
624.210308
 20
370.578324
 30
0.0
 11
624.210308
 21
265.578324
 31
0.0
  0
LINE
  5
2C4
330
1E
100
AcDbEntity
  8
CSLAYER1
  6
CONTINUOUS
 62
     3
100
AcDbLine
 10
616.210308
 20
287.578324
 30
0.0
 11
616.210308
 21
370.578324
 31
0.0
  0
LINE
  5
2C5
330
1E
100
AcDbEntity
  8
CSLAYER1
  6
CONTINUOUS
 62
     3
100
AcDbLine
 10
615.710308
 20
370.578324
 30
0.0
 11
615.710308
 21
371.7783239999998
 31
0.0
  0
LINE
  5
2C6
330
1E
100
AcDbEntity
  8
CSLAYER1
  6
CONTINUOUS
 62
     3
100
AcDbLine
 10
604.7876579999996
 20
409.578324
 30
0.0
 11
605.3650099999996
 21
410.578324
 31
0.0
  0
LINE
  5
2C7
330
1E
100
AcDbEntity
  8
CSLAYER1
  6
CONTINUOUS
 62
     3
100
AcDbLine
 10
605.3650099999996
 20
410.578324
 30
0.0
 11
604.7876579999996
 21
411.5783239999998
 31
0.0
  0
LINE
  5
2C8
330
1E
100
AcDbEntity
  8
CSLAYER1
  6
CONTINUOUS
 62
     3
100
AcDbLine
 10
604.7876579999996
 20
411.5783239999998
 30
0.0
 11
603.632958
 21
411.5783239999998
 31
0.0
  0
LINE
  5
2C9
330
1E
100
AcDbEntity
  8
CSLAYER1
  6
CONTINUOUS
 62
     3
100
AcDbLine
 10
603.632958
 20
411.5783239999998
 30
0.0
 11
603.055608
 21
410.578324
 31
0.0
  0
LINE
  5
2CA
330
1E
100
AcDbEntity
  8
CSLAYER1
  6
CONTINUOUS
 62
     3
100
AcDbLine
 10
603.055608
 20
410.578324
 30
0.0
 11
603.632958
 21
409.578324
 31
0.0
  0
LINE
  5
2CB
330
1E
100
AcDbEntity
  8
CSLAYER1
  6
CONTINUOUS
 62
     3
100
AcDbLine
 10
603.632958
 20
409.578324
 30
0.0
 11
604.7876579999996
 21
409.578324
 31
0.0
  0
CIRCLE
  5
2CC
330
1E
100
AcDbEntity
  8
CSLAYER1
  6
CONTINUOUS
 62
     3
100
AcDbCircle
 10
604.210308
 20
410.578324
 30
0.0
 40
2.0
  0
LINE
  5
2CD
330
1E
100
AcDbEntity
  8
CSLAYER1
  6
CONTINUOUS
 62
     3
100
AcDbLine
 10
443.749824
 20
484.9862499999998
 30
0.0
 11
383.249824
 21
484.9862499999998
 31
0.0
  0
LINE
  5
2CE
330
1E
100
AcDbEntity
  8
CSLAYER1
  6
CONTINUOUS
 62
     3
100
AcDbLine
 10
389.749824
 20
484.9862499999998
 30
0.0
 11
389.749824
 21
476.98625
 31
0.0
  0
LINE
  5
2CF
330
1E
100
AcDbEntity
  8
CSLAYER1
  6
CONTINUOUS
 62
     3
100
AcDbLine
 10
390.749824
 20
476.98625
 30
0.0
 11
390.749824
 21
468.98625
 31
0.0
  0
LINE
  5
2D0
330
1E
100
AcDbEntity
  8
CSLAYER1
  6
CONTINUOUS
 62
     3
100
AcDbLine
 10
389.749824
 20
468.98625
 30
0.0
 11
389.749824
 21
461.9862499999999
 31
0.0
  0
LINE
  5
2D1
330
1E
100
AcDbEntity
  8
CSLAYER1
  6
CONTINUOUS
 62
     3
100
AcDbLine
 10
389.749824
 20
461.9862499999999
 30
0.0
 11
443.249824
 21
461.9862499999999
 31
0.0
  0
LINE
  5
2D2
330
1E
100
AcDbEntity
  8
CSLAYER1
  6
CONTINUOUS
 62
     3
100
AcDbLine
 10
443.249824
 20
461.9862499999999
 30
0.0
 11
443.249824
 21
484.9862499999998
 31
0.0
  0
LINE
  5
2D3
330
1E
100
AcDbEntity
  8
CSLAYER1
  6
CONTINUOUS
 62
     3
100
AcDbLine
 10
443.749824
 20
492.9862499999998
 30
0.0
 11
443.749824
 21
452.98625
 31
0.0
  0
LINE
  5
2D4
330
1E
100
AcDbEntity
  8
CSLAYER1
  6
CONTINUOUS
 62
     3
100
AcDbLine
 10
443.749824
 20
452.98625
 30
0.0
 11
383.249824
 21
452.98625
 31
0.0
  0
LINE
  5
2D5
330
1E
100
AcDbEntity
  8
CSLAYER1
  6
CONTINUOUS
 62
     3
100
AcDbLine
 10
383.249824
 20
452.98625
 30
0.0
 11
383.249824
 21
468.98625
 31
0.0
  0
LINE
  5
2D6
330
1E
100
AcDbEntity
  8
CSLAYER1
  6
CONTINUOUS
 62
     3
100
AcDbLine
 10
381.249824
 20
476.98625
 30
0.0
 11
443.249824
 21
476.98625
 31
0.0
  0
LINE
  5
2D7
330
1E
100
AcDbEntity
  8
CSLAYER1
  6
CONTINUOUS
 62
     3
100
AcDbLine
 10
443.249824
 20
465.98625
 30
0.0
 11
389.749824
 21
465.98625
 31
0.0
  0
LINE
  5
2D8
330
1E
100
AcDbEntity
  8
CSLAYER1
  6
CONTINUOUS
 62
     3
100
AcDbLine
 10
390.499824
 20
461.9862499999999
 30
0.0
 11
390.499824
 21
458.9862499999998
 31
0.0
  0
ARC
  5
2D9
330
1E
100
AcDbEntity
  8
CSLAYER1
  6
CONTINUOUS
 62
     3
100
AcDbCircle
 10
390.999824
 20
458.9862499999998
 30
0.0
 40
0.5
100
AcDbArc
 50
180.0
 51
270.0
  0
LINE
  5
2DA
330
1E
100
AcDbEntity
  8
CSLAYER1
  6
CONTINUOUS
 62
     3
100
AcDbLine
 10
390.999824
 20
458.4862499999998
 30
0.0
 11
395.499824
 21
458.4862499999998
 31
0.0
  0
ARC
  5
2DB
330
1E
100
AcDbEntity
  8
CSLAYER1
  6
CONTINUOUS
 62
     3
100
AcDbCircle
 10
395.499824
 20
458.9862499999998
 30
0.0
 40
0.5
100
AcDbArc
 50
270.0
 51
0.0
  0
LINE
  5
2DC
330
1E
100
AcDbEntity
  8
CSLAYER1
  6
CONTINUOUS
 62
     3
100
AcDbLine
 10
395.999824
 20
458.9862499999998
 30
0.0
 11
395.999824
 21
461.9862499999999
 31
0.0
  0
LINE
  5
2DD
330
1E
100
AcDbEntity
  8
CSLAYER1
  6
CONTINUOUS
 62
     3
100
AcDbLine
 10
392.749824
 20
476.98625
 30
0.0
 11
392.749824
 21
474.9862499999998
 31
0.0
  0
LINE
  5
2DE
330
1E
100
AcDbEntity
  8
CSLAYER1
  6
CONTINUOUS
 62
     3
100
AcDbLine
 10
392.749824
 20
474.9862499999998
 30
0.0
 11
412.749824
 21
474.9862499999998
 31
0.0
  0
LINE
  5
2DF
330
1E
100
AcDbEntity
  8
CSLAYER1
  6
CONTINUOUS
 62
     3
100
AcDbLine
 10
412.749824
 20
474.9862499999998
 30
0.0
 11
412.749824
 21
476.98625
 31
0.0
  0
LINE
  5
2E0
330
1E
100
AcDbEntity
  8
CSLAYER1
  6
CONTINUOUS
 62
     3
100
AcDbLine
 10
416.449824
 20
472.235694
 30
0.0
 11
417.749824
 21
471.48514
 31
0.0
  0
LINE
  5
2E1
330
1E
100
AcDbEntity
  8
CSLAYER1
  6
CONTINUOUS
 62
     3
100
AcDbLine
 10
417.749824
 20
471.48514
 30
0.0
 11
419.049824
 21
472.235694
 31
0.0
  0
LINE
  5
2E2
330
1E
100
AcDbEntity
  8
CSLAYER1
  6
CONTINUOUS
 62
     3
100
AcDbLine
 10
419.049824
 20
472.235694
 30
0.0
 11
419.049824
 21
473.7368059999998
 31
0.0
  0
LINE
  5
2E3
330
1E
100
AcDbEntity
  8
CSLAYER1
  6
CONTINUOUS
 62
     3
100
AcDbLine
 10
419.049824
 20
473.7368059999998
 30
0.0
 11
417.749824
 21
474.48736
 31
0.0
  0
LINE
  5
2E4
330
1E
100
AcDbEntity
  8
CSLAYER1
  6
CONTINUOUS
 62
     3
100
AcDbLine
 10
417.749824
 20
474.48736
 30
0.0
 11
416.449824
 21
473.7368059999998
 31
0.0
  0
LINE
  5
2E5
330
1E
100
AcDbEntity
  8
CSLAYER1
  6
CONTINUOUS
 62
     3
100
AcDbLine
 10
416.449824
 20
473.7368059999998
 30
0.0
 11
416.449824
 21
472.235694
 31
0.0
  0
CIRCLE
  5
2E6
330
1E
100
AcDbEntity
  8
CSLAYER1
  6
CONTINUOUS
 62
     3
100
AcDbCircle
 10
417.749824
 20
472.98625
 30
0.0
 40
2.5
  0
LINE
  5
2E7
330
1E
100
AcDbEntity
  8
CSLAYER1
  6
CONTINUOUS
 62
     3
100
AcDbLine
 10
433.749824
 20
468.98625
 30
0.0
 11
433.749824
 21
476.98625
 31
0.0
  0
LINE
  5
2E8
330
1E
100
AcDbEntity
  8
CSLAYER1
  6
CONTINUOUS
 62
     3
100
AcDbLine
 10
433.749824
 20
468.98625
 30
0.0
 11
381.249824
 21
468.98625
 31
0.0
  0
LINE
  5
2E9
330
1E
100
AcDbEntity
  8
CSLAYER1
  6
CONTINUOUS
 62
     3
100
AcDbLine
 10
381.249824
 20
476.98625
 30
0.0
 11
381.249824
 21
468.98625
 31
0.0
  0
LINE
  5
2EA
330
1E
100
AcDbEntity
  8
CSLAYER1
  6
CONTINUOUS
 62
     3
100
AcDbLine
 10
383.750416
 20
472.12125
 30
0.0
 11
383.251008
 21
472.98625
 31
0.0
  0
LINE
  5
2EB
330
1E
100
AcDbEntity
  8
CSLAYER1
  6
CONTINUOUS
 62
     3
100
AcDbLine
 10
383.251008
 20
472.98625
 30
0.0
 11
383.750416
 21
473.8512499999996
 31
0.0
  0
LINE
  5
2EC
330
1E
100
AcDbEntity
  8
CSLAYER1
  6
CONTINUOUS
 62
     3
100
AcDbLine
 10
383.750416
 20
473.8512499999996
 30
0.0
 11
384.749232
 21
473.8512499999996
 31
0.0
  0
LINE
  5
2ED
330
1E
100
AcDbEntity
  8
CSLAYER1
  6
CONTINUOUS
 62
     3
100
AcDbLine
 10
384.749232
 20
473.8512499999996
 30
0.0
 11
385.2486399999998
 21
472.98625
 31
0.0
  0
LINE
  5
2EE
330
1E
100
AcDbEntity
  8
CSLAYER1
  6
CONTINUOUS
 62
     3
100
AcDbLine
 10
385.2486399999998
 20
472.98625
 30
0.0
 11
384.749232
 21
472.12125
 31
0.0
  0
LINE
  5
2EF
330
1E
100
AcDbEntity
  8
CSLAYER1
  6
CONTINUOUS
 62
     3
100
AcDbLine
 10
384.749232
 20
472.12125
 30
0.0
 11
383.750416
 21
472.12125
 31
0.0
  0
CIRCLE
  5
2F0
330
1E
100
AcDbEntity
  8
CSLAYER1
  6
CONTINUOUS
 62
     3
100
AcDbCircle
 10
384.249824
 20
472.98625
 30
0.0
 40
1.5
  0
LINE
  5
2F1
330
1E
100
AcDbEntity
  8
CSLAYER1
  6
CONTINUOUS
 62
     3
100
AcDbLine
 10
383.249824
 20
476.98625
 30
0.0
 11
383.249824
 21
492.9862499999998
 31
0.0
  0
LINE
  5
2F2
330
1E
100
AcDbEntity
  8
CSLAYER1
  6
CONTINUOUS
 62
     3
100
AcDbLine
 10
383.249824
 20
492.9862499999998
 30
0.0
 11
443.749824
 21
492.9862499999998
 31
0.0
  0
LINE
  5
2F3
330
1E
100
AcDbEntity
  8
CSLAYER1
  6
CONTINUOUS
 62
     3
100
AcDbLine
 10
442.999824
 20
461.9862499999999
 30
0.0
 11
442.999824
 21
458.9862499999998
 31
0.0
  0
ARC
  5
2F4
330
1E
100
AcDbEntity
  8
CSLAYER1
  6
CONTINUOUS
 62
     3
100
AcDbCircle
 10
442.499824
 20
458.9862499999998
 30
0.0
 40
0.5
100
AcDbArc
 50
270.0
 51
0.0
  0
LINE
  5
2F5
330
1E
100
AcDbEntity
  8
CSLAYER1
  6
CONTINUOUS
 62
     3
100
AcDbLine
 10
442.499824
 20
458.4862499999998
 30
0.0
 11
437.999824
 21
458.4862499999998
 31
0.0
  0
ARC
  5
2F6
330
1E
100
AcDbEntity
  8
CSLAYER1
  6
CONTINUOUS
 62
     3
100
AcDbCircle
 10
437.999824
 20
458.9862499999998
 30
0.0
 40
0.5
100
AcDbArc
 50
180.0
 51
270.0
  0
LINE
  5
2F7
330
1E
100
AcDbEntity
  8
CSLAYER1
  6
CONTINUOUS
 62
     3
100
AcDbLine
 10
437.499824
 20
458.9862499999998
 30
0.0
 11
437.499824
 21
461.9862499999999
 31
0.0
  0
LINE
  5
2F8
330
1E
100
AcDbEntity
  8
CSLAYER1
  6
CONTINUOUS
 62
     3
100
AcDbLine
 10
435.749824
 20
461.9862499999999
 30
0.0
 11
435.749824
 21
452.98625
 31
0.0
  0
ARC
  5
2F9
330
1E
100
AcDbEntity
  8
CSLAYER1
  6
CONTINUOUS
 62
     3
100
AcDbCircle
 10
390.249824
 20
472.98625
 30
0.0
 40
1.5
100
AcDbArc
 50
70.528779
 51
289.471221
  0
LINE
  5
2FA
330
1E
100
AcDbEntity
  8
CSLAYER1
  6
CONTINUOUS
 62
     3
100
AcDbLine
 10
390.749232
 20
473.8512499999996
 30
0.0
 11
389.750416
 21
473.8512499999996
 31
0.0
  0
LINE
  5
2FB
330
1E
100
AcDbEntity
  8
CSLAYER1
  6
CONTINUOUS
 62
     3
100
AcDbLine
 10
389.750416
 20
473.8512499999996
 30
0.0
 11
389.251008
 21
472.98625
 31
0.0
  0
LINE
  5
2FC
330
1E
100
AcDbEntity
  8
CSLAYER1
  6
CONTINUOUS
 62
     3
100
AcDbLine
 10
389.251008
 20
472.98625
 30
0.0
 11
389.750416
 21
472.12125
 31
0.0
  0
LINE
  5
2FD
330
1E
100
AcDbEntity
  8
CSLAYER1
  6
CONTINUOUS
 62
     3
100
AcDbLine
 10
389.750416
 20
472.12125
 30
0.0
 11
390.749232
 21
472.12125
 31
0.0
  0
LINE
  5
2FE
330
1E
100
AcDbEntity
  8
CSLAYER1
  6
CONTINUOUS
 62
     3
100
AcDbLine
 10
609.460308
 20
334.378324
 30
0.0
 11
609.4865559999996
 21
334.078324
 31
0.0
  0
LINE
  5
2FF
330
1E
100
AcDbEntity
  8
CSLAYER1
  6
CONTINUOUS
 62
     3
100
AcDbLine
 10
614.934062
 20
334.078324
 30
0.0
 11
614.960308
 21
334.378324
 31
0.0
  0
CIRCLE
  5
300
330
1E
100
AcDbEntity
  8
CSLAYER1
  6
CONTINUOUS
 62
     3
100
AcDbCircle
 10
620.210308
 20
333.078324
 30
0.0
 40
2.1
  0
CIRCLE
  5
301
330
1E
100
AcDbEntity
  8
CSLAYER1
  6
CONTINUOUS
 62
     3
100
AcDbCircle
 10
620.210308
 20
353.078324
 30
0.0
 40
2.1
  0
POINT
  5
302
330
1E
100
AcDbEntity
  8
CSLAYER1
 62
     3
100
AcDbPoint
 10
417.749824
 20
472.98625
 30
0.0
  0
LINE
  5
303
330
1E
100
AcDbEntity
  8
CSLAYER1
  6
CENTER
 62
     4
100
AcDbLine
 10
604.210308
 20
92.888888
 30
0.0
 11
604.210308
 21
424.7985339999998
 31
0.0
  0
CIRCLE
  5
304
330
1E
100
AcDbEntity
  8
CSLAYER1
  6
CONTINUOUS
 62
     4
100
AcDbCircle
 10
604.210308
 20
410.578324
 30
0.0
 40
1.649999999999999
  0
LINE
  5
305
330
1E
100
AcDbEntity
  8
CSLAYER1
  6
CENTER
 62
     4
100
AcDbLine
 10
600.5828799999996
 20
410.578324
 30
0.0
 11
607.4948799999996
 21
410.578324
 31
0.0
  0
LINE
  5
306
330
1E
100
AcDbEntity
  8
CSLAYER1
  6
CENTER
 62
     4
100
AcDbLine
 10
610.332304
 20
376.578324
 30
0.0
 11
597.3679139999998
 21
376.578324
 31
0.0
  0
LINE
  5
307
330
1E
100
AcDbEntity
  8
CSLAYER1
  6
CENTER
 62
     4
100
AcDbLine
 10
440.249824
 20
456.838536
 30
0.0
 11
440.249824
 21
463.388718
 31
0.0
  0
LINE
  5
308
330
1E
100
AcDbEntity
  8
CSLAYER1
  6
CENTER
 62
     4
100
AcDbLine
 10
424.3692519999998
 20
472.98625
 30
0.0
 11
379.36784
 21
472.98625
 31
0.0
  0
CIRCLE
  5
309
330
1E
100
AcDbEntity
  8
CSLAYER1
  6
CONTINUOUS
 62
     4
100
AcDbCircle
 10
384.249824
 20
472.98625
 30
0.0
 40
1.25
  0
LINE
  5
30A
330
1E
100
AcDbEntity
  8
CSLAYER1
  6
CENTER
 62
     4
100
AcDbLine
 10
384.249824
 20
477.677462
 30
0.0
 11
384.249824
 21
467.5427259999998
 31
0.0
  0
LINE
  5
30B
330
1E
100
AcDbEntity
  8
CSLAYER1
  6
CENTER
 62
     4
100
AcDbLine
 10
390.249824
 20
467.8427679999998
 30
0.0
 11
390.249824
 21
477.644124
 31
0.0
  0
LINE
  5
30C
330
1E
100
AcDbEntity
  8
CSLAYER1
  6
CENTER
 62
     4
100
AcDbLine
 10
417.749824
 20
477.8479639999998
 30
0.0
 11
417.749824
 21
467.9102499999998
 31
0.0
  0
CIRCLE
  5
30D
330
1E
100
AcDbEntity
  8
CSLAYER1
  6
CONTINUOUS
 62
     4
100
AcDbCircle
 10
417.749824
 20
472.98625
 30
0.0
 40
2.1
  0
LINE
  5
30E
330
1E
100
AcDbEntity
  8
CSLAYER1
  6
CENTER
 62
     4
100
AcDbLine
 10
405.749824
 20
449.700628
 30
0.0
 11
405.749824
 21
495.1063259999998
 31
0.0
  0
LINE
  5
30F
330
1E
100
AcDbEntity
  8
CSLAYER1
  6
CENTER
 62
     4
100
AcDbLine
 10
620.210308
 20
326.080088
 30
0.0
 11
620.210308
 21
360.578324
 31
0.0
  0
CIRCLE
  5
310
330
1E
100
AcDbEntity
  8
CSLAYER1
  6
CONTINUOUS
 62
     4
100
AcDbCircle
 10
620.210308
 20
353.078324
 30
0.0
 40
2.5
  0
LINE
  5
311
330
1E
100
AcDbEntity
  8
CSLAYER1
  6
CENTER
 62
     4
100
AcDbLine
 10
628.2360219999998
 20
353.078324
 30
0.0
 11
611.7994519999996
 21
353.078324
 31
0.0
  0
LINE
  5
312
330
1E
100
AcDbEntity
  8
CSLAYER1
  6
CENTER
 62
     4
100
AcDbLine
 10
612.210308
 20
337.90224
 30
0.0
 11
612.210308
 21
330.51797
 31
0.0
  0
LINE
  5
313
330
1E
100
AcDbEntity
  8
CSLAYER1
  6
CENTER
 62
     4
100
AcDbLine
 10
611.7994519999996
 20
333.078324
 30
0.0
 11
628.2360219999998
 21
333.078324
 31
0.0
  0
CIRCLE
  5
314
330
1E
100
AcDbEntity
  8
CSLAYER1
  6
CONTINUOUS
 62
     4
100
AcDbCircle
 10
620.210308
 20
333.078324
 30
0.0
 40
2.5
  0
LINE
  5
315
330
1E
100
AcDbEntity
  8
CSLAYER1
  6
CENTER
 62
     4
100
AcDbLine
 10
612.210308
 20
367.5495339999998
 30
0.0
 11
612.210308
 21
375.6570919999998
 31
0.0
  0
LINE
  5
316
330
1E
100
AcDbEntity
  8
CSLAYER1
  6
CENTER
 62
     4
100
AcDbLine
 10
393.249824
 20
456.838536
 30
0.0
 11
393.249824
 21
463.388718
 31
0.0
  0
ARC
  5
317
330
1E
100
AcDbEntity
  8
CSLAYER1
  6
CONTINUOUS
 62
     4
100
AcDbCircle
 10
390.249824
 20
472.98625
 30
0.0
 40
1.25
100
AcDbArc
 50
66.42182199999999
 51
293.5781779999998
  0
POINT
  5
318
330
1E
100
AcDbEntity
  8
CSLAYER1
 62
     3
100
AcDbPoint
 10
405.749824
 20
476.98625
 30
0.0
  0
ARC
  5
319
330
1E
100
AcDbEntity
  8
CSLAYER1
  6
CONTINUOUS
 62
     3
100
AcDbCircle
 10
588.7103080000001
 20
343.328324
 30
0.0
 40
0.5
100
AcDbArc
 50
180.0
 51
270.0
  0
LINE
  5
31A
330
1E
100
AcDbEntity
  8
CSLAYER1
  6
CONTINUOUS
 62
     3
100
AcDbLine
 10
588.7103080000001
 20
342.828324
 30
0.0
 11
591.710308
 21
342.828324
 31
0.0
  0
LINE
  5
31B
330
1E
100
AcDbEntity
  8
CSLAYER1
  6
CONTINUOUS
 62
     3
100
AcDbLine
 10
588.210308
 20
343.328324
 30
0.0
 11
588.210308
 21
347.828324
 31
0.0
  0
ARC
  5
31C
330
1E
100
AcDbEntity
  8
CSLAYER1
  6
CONTINUOUS
 62
     3
100
AcDbCircle
 10
588.7103080000001
 20
347.828324
 30
0.0
 40
0.5
100
AcDbArc
 50
90.0
 51
180.0
  0
LINE
  5
31D
330
1E
100
AcDbEntity
  8
CSLAYER1
  6
CONTINUOUS
 62
     3
100
AcDbLine
 10
588.7103080000001
 20
348.328324
 30
0.0
 11
591.710308
 21
348.328324
 31
0.0
  0
LINE
  5
31E
330
1E
100
AcDbEntity
  8
CSLAYER1
  6
CONTINUOUS
 62
     3
100
AcDbLine
 10
591.710308
 20
357.828324
 30
0.0
 11
588.7103080000001
 21
357.828324
 31
0.0
  0
ARC
  5
31F
330
1E
100
AcDbEntity
  8
CSLAYER1
  6
CONTINUOUS
 62
     3
100
AcDbCircle
 10
588.7103080000001
 20
358.328324
 30
0.0
 40
0.5
100
AcDbArc
 50
180.0
 51
270.0
  0
LINE
  5
320
330
1E
100
AcDbEntity
  8
CSLAYER1
  6
CONTINUOUS
 62
     3
100
AcDbLine
 10
588.210308
 20
358.328324
 30
0.0
 11
588.210308
 21
362.828324
 31
0.0
  0
ARC
  5
321
330
1E
100
AcDbEntity
  8
CSLAYER1
  6
CONTINUOUS
 62
     3
100
AcDbCircle
 10
588.7103080000001
 20
362.828324
 30
0.0
 40
0.5
100
AcDbArc
 50
90.0
 51
180.0
  0
LINE
  5
322
330
1E
100
AcDbEntity
  8
CSLAYER1
  6
CONTINUOUS
 62
     3
100
AcDbLine
 10
588.7103080000001
 20
363.328324
 30
0.0
 11
591.710308
 21
363.328324
 31
0.0
  0
LINE
  5
323
330
1E
100
AcDbEntity
  8
CSLAYER1
  6
CENTER
 62
     4
100
AcDbLine
 10
586.562594
 20
360.578324
 30
0.0
 11
593.1127759999998
 21
360.578324
 31
0.0
  0
LINE
  5
324
330
1E
100
AcDbEntity
  8
CSLAYER1
  6
CENTER
 62
     4
100
AcDbLine
 10
584.602698
 20
345.578324
 30
0.0
 11
593.009624
 21
345.578324
 31
0.0
  0
INSERT
  5
325
330
1E
100
AcDbEntity
  8
CSLAYER1
100
AcDbBlockReference
  2
FXDIM0000
 10
0.0
 20
0.0
 30
0.0
 41
2.0
 42
2.0
 43
2.0
  0
LINE
  5
330
330
1E
100
AcDbEntity
  8
CSLAYER1
  6
DASHED
 62
     4
100
AcDbLine
 10
392.749824
 20
467.272682
 30
0.0
 11
412.749824
 21
467.272682
 31
0.0
  0
TEXT
  5
339
330
1E
100
AcDbEntity
  8
CSLAYER1
 62
     4
100
AcDbText
 10
448.4969299999998
 20
339.204072
 30
0.0
 40
6.4
  1
A
 41
1.500000000000034
 51
15.0
  7
FX_FONT
 72
     5
 11
454.89693
 21
339.204072
 31
0.0
100
AcDbText
  0
TEXT
  5
33A
330
1E
100
AcDbEntity
  8
CSLAYER1
 62
     4
100
AcDbText
 10
375.7415579999998
 20
339.204072
 30
0.0
 40
6.4
  1
A
 41
1.500000000000047
 51
15.0
  7
FX_FONT
 72
     5
 11
382.141558
 21
339.204072
 31
0.0
100
AcDbText
  0
TEXT
  5
33B
330
1E
100
AcDbEntity
  8
CSLAYER1
 62
     4
100
AcDbText
 10
71.54295999999998
 20
239.56485
 30
0.0
 40
6.4
  1
刃部拡大図(5/1)
 41
0.9677419657258072
 51
15.0
  7
FX_FONT
 72
     5
 11
135.542962
 21
239.56485
 31
0.0
100
AcDbText
  0
LINE
  5
33E
330
1E
100
AcDbEntity
  8
CSLAYER1
  6
CONTINUOUS
 62
     3
100
AcDbLine
 10
598.710308
 20
370.578324
 30
0.0
 11
598.710308
 21
335.578324
 31
0.0
  0
LINE
  5
33F
330
1E
100
AcDbEntity
  8
CSLAYER1
  6
CONTINUOUS
 62
     3
100
AcDbLine
 10
220.1432339999995
 20
287.578324
 30
0.0
 11
260.143234
 21
287.578324
 31
0.0
  0
LINE
  5
340
330
1E
100
AcDbEntity
  8
CSLAYER1
  6
CONTINUOUS
 62
     3
100
AcDbLine
 10
443.749824
 20
287.578324
 30
0.0
 11
383.249824
 21
287.578324
 31
0.0
  0
LINE
  5
341
330
1E
100
AcDbEntity
  8
CSLAYER1
  6
CONTINUOUS
 62
     3
100
AcDbLine
 10
584.210308
 20
287.578324
 30
0.0
 11
624.210308
 21
287.578324
 31
0.0
  0
LINE
  5
342
330
1E
100
AcDbEntity
  8
CSLAYER1
  6
CONTINUOUS
 62
     3
100
AcDbLine
 10
262.643234
 20
265.578324
 30
0.0
 11
262.643234
 21
100.5783239999999
 31
0.0
  0
LINE
  5
343
330
1E
100
AcDbEntity
  8
CSLAYER1
  6
CONTINUOUS
 62
     3
100
AcDbLine
 10
217.6432339999998
 20
265.578324
 30
0.0
 11
217.6432339999998
 21
100.5783239999999
 31
0.0
  0
LINE
  5
344
330
1E
100
AcDbEntity
  8
CSLAYER1
  6
CONTINUOUS
 62
     3
100
AcDbLine
 10
217.6432339999998
 20
265.578324
 30
0.0
 11
262.643234
 21
265.578324
 31
0.0
  0
LINE
  5
345
330
1E
100
AcDbEntity
  8
CSLAYER1
  6
CONTINUOUS
 62
     3
100
AcDbLine
 10
217.6432339999998
 20
257.578324
 30
0.0
 11
262.643234
 21
257.578324
 31
0.0
  0
LINE
  5
346
330
1E
100
AcDbEntity
  8
CSLAYER1
  6
CENTER
 62
     4
100
AcDbLine
 10
257.143234
 20
276.5266
 30
0.0
 11
257.143234
 21
244.36604
 31
0.0
  0
LINE
  5
347
330
1E
100
AcDbEntity
  8
CSLAYER1
  6
CONTINUOUS
 62
     3
100
AcDbLine
 10
217.6432339999998
 20
100.5783239999999
 30
0.0
 11
262.643234
 21
100.5783239999999
 31
0.0
  0
LINE
  5
348
330
1E
100
AcDbEntity
  8
CSLAYER1
  6
CENTER
 62
     4
100
AcDbLine
 10
223.143234
 20
276.5266
 30
0.0
 11
223.143234
 21
244.36604
 31
0.0
  0
LINE
  5
349
330
1E
100
AcDbEntity
  8
CSLAYER1
  6
CONTINUOUS
 62
     3
100
AcDbLine
 10
228.6432339999995
 20
257.578324
 30
0.0
 11
228.6432339999995
 21
175.578324
 31
0.0
  0
LINE
  5
34A
330
1E
100
AcDbEntity
  8
CSLAYER1
  6
CONTINUOUS
 62
     3
100
AcDbLine
 10
217.6432339999998
 20
175.578324
 30
0.0
 11
262.643234
 21
175.578324
 31
0.0
  0
LINE
  5
34B
330
1E
100
AcDbEntity
  8
CSLAYER1
  6
CONTINUOUS
 62
     3
100
AcDbLine
 10
217.6432339999998
 20
167.578324
 30
0.0
 11
262.643234
 21
167.578324
 31
0.0
  0
LINE
  5
34C
330
1E
100
AcDbEntity
  8
CSLAYER1
  6
CONTINUOUS
 62
     3
100
AcDbLine
 10
217.6432339999998
 20
117.078324
 30
0.0
 11
262.643234
 21
117.078324
 31
0.0
  0
LINE
  5
34D
330
1E
100
AcDbEntity
  8
CSLAYER1
  6
CONTINUOUS
 62
     3
100
AcDbLine
 10
251.6432339999995
 20
257.578324
 30
0.0
 11
251.6432339999995
 21
175.578324
 31
0.0
  0
INSERT
  5
34E
330
1E
100
AcDbEntity
  8
CSLAYER1
100
AcDbBlockReference
  2
BLKF0000
 10
0.0
 20
0.0
 30
0.0
 41
2.0
 42
2.0
 43
2.0
  0
INSERT
  5
34F
330
1E
100
AcDbEntity
  8
CSLAYER1
100
AcDbBlockReference
  2
BLKF0001
 10
0.0
 20
0.0
 30
0.0
 41
2.0
 42
2.0
 43
2.0
  0
LINE
  5
351
330
1E
100
AcDbEntity
  8
CSLAYER1
  6
CONTINUOUS
 62
     3
100
AcDbLine
 10
220.1432339999995
 20
282.578324
 30
0.0
 11
260.143234
 21
282.578324
 31
0.0
  0
LINE
  5
352
330
1E
100
AcDbEntity
  8
CSLAYER1
  6
CONTINUOUS
 62
     3
100
AcDbLine
 10
428.249824
 20
265.578324
 30
0.0
 11
428.249824
 21
241.146056
 31
0.0
  0
LINE
  5
353
330
1E
100
AcDbEntity
  8
CSLAYER1
  6
CONTINUOUS
 62
     3
100
AcDbLine
 10
383.249824
 20
265.578324
 30
0.0
 11
443.749824
 21
265.578324
 31
0.0
  0
LINE
  5
354
330
1E
100
AcDbEntity
  8
CSLAYER1
  6
CONTINUOUS
 62
     3
100
AcDbLine
 10
383.249824
 20
257.578324
 30
0.0
 11
428.249824
 21
257.578324
 31
0.0
  0
LINE
  5
355
330
1E
100
AcDbEntity
  8
CSLAYER1
  6
CENTER
 62
     4
100
AcDbLine
 10
422.749824
 20
276.5266
 30
0.0
 11
422.749824
 21
244.36604
 31
0.0
  0
LINE
  5
356
330
1E
100
AcDbEntity
  8
CSLAYER1
  6
CONTINUOUS
 62
     3
100
AcDbLine
 10
383.249824
 20
100.5783239999999
 30
0.0
 11
451.749824
 21
100.5783239999999
 31
0.0
  0
LINE
  5
357
330
1E
100
AcDbEntity
  8
CSLAYER1
  6
CENTER
 62
     4
100
AcDbLine
 10
388.749824
 20
276.5266
 30
0.0
 11
388.749824
 21
244.36604
 31
0.0
  0
LINE
  5
358
330
1E
100
AcDbEntity
  8
CSLAYER1
  6
CONTINUOUS
 62
     3
100
AcDbLine
 10
451.749824
 20
227.5783239999998
 30
0.0
 11
451.749824
 21
100.5783239999999
 31
0.0
  0
LINE
  5
359
330
1E
100
AcDbEntity
  8
CSLAYER1
  6
CONTINUOUS
 62
     3
100
AcDbLine
 10
417.249824
 20
227.5783239999998
 30
0.0
 11
451.749824
 21
227.5783239999998
 31
0.0
  0
LINE
  5
35A
330
1E
100
AcDbEntity
  8
CSLAYER1
  6
CONTINUOUS
 62
     3
100
AcDbLine
 10
417.249824
 20
257.578324
 30
0.0
 11
417.249824
 21
106.578324
 31
0.0
  0
LINE
  5
35B
330
1E
100
AcDbEntity
  8
CSLAYER1
  6
CONTINUOUS
 62
     3
100
AcDbLine
 10
394.249824
 20
257.578324
 30
0.0
 11
394.249824
 21
175.578324
 31
0.0
  0
LINE
  5
35C
330
1E
100
AcDbEntity
  8
CSLAYER1
  6
CONTINUOUS
 62
     3
100
AcDbLine
 10
383.249824
 20
175.578324
 30
0.0
 11
417.249824
 21
175.578324
 31
0.0
  0
LINE
  5
35D
330
1E
100
AcDbEntity
  8
CSLAYER1
  6
CONTINUOUS
 62
     3
100
AcDbLine
 10
383.249824
 20
167.578324
 30
0.0
 11
417.249824
 21
167.578324
 31
0.0
  0
LINE
  5
35E
330
1E
100
AcDbEntity
  8
CSLAYER1
  6
CONTINUOUS
 62
     3
100
AcDbLine
 10
383.249824
 20
117.078324
 30
0.0
 11
417.249824
 21
117.078324
 31
0.0
  0
LINE
  5
35F
330
1E
100
AcDbEntity
  8
CSLAYER1
  6
CONTINUOUS
 62
     3
100
AcDbLine
 10
417.249824
 20
106.578324
 30
0.0
 11
451.749824
 21
106.578324
 31
0.0
  0
LINE
  5
360
330
1E
100
AcDbEntity
  8
CSLAYER1
  6
CONTINUOUS
 62
     3
100
AcDbLine
 10
451.749824
 20
227.5783239999998
 30
0.0
 11
428.249824
 21
241.146056
 31
0.0
  0
LINE
  5
361
330
1E
100
AcDbEntity
  8
CSLAYER1
  6
CENTER
 62
     4
100
AcDbLine
 10
442.0463719999998
 20
109.578324
 30
0.0
 11
472.8307099999998
 21
109.578324
 31
0.0
  0
LINE
  5
362
330
1E
100
AcDbEntity
  8
CSLAYER1
  6
CONTINUOUS
 62
     3
100
AcDbLine
 10
451.749824
 20
115.5783239999999
 30
0.0
 11
453.749824
 21
115.5783239999999
 31
0.0
  0
LINE
  5
363
330
1E
100
AcDbEntity
  8
CSLAYER1
  6
CONTINUOUS
 62
     3
100
AcDbLine
 10
451.749824
 20
103.5783239999999
 30
0.0
 11
453.749824
 21
103.5783239999999
 31
0.0
  0
LINE
  5
364
330
1E
100
AcDbEntity
  8
CSLAYER1
  6
CONTINUOUS
 62
     3
100
AcDbLine
 10
453.749824
 20
115.5783239999999
 30
0.0
 11
453.749824
 21
103.5783239999999
 31
0.0
  0
LINE
  5
365
330
1E
100
AcDbEntity
  8
CSLAYER1
  6
CONTINUOUS
 62
     3
100
AcDbLine
 10
453.749824
 20
113.5783239999999
 30
0.0
 11
470.032132
 21
113.5783239999999
 31
0.0
  0
LINE
  5
366
330
1E
100
AcDbEntity
  8
CSLAYER1
  6
CONTINUOUS
 62
     3
100
AcDbLine
 10
453.749824
 20
105.578324
 30
0.0
 11
469.632336
 21
105.578324
 31
0.0
  0
INSERT
  5
367
330
1E
100
AcDbEntity
  8
CSLAYER1
100
AcDbBlockReference
  2
BLKF0002
 10
0.0
 20
0.0
 30
0.0
 41
2.0
 42
2.0
 43
2.0
  0
INSERT
  5
368
330
1E
100
AcDbEntity
  8
CSLAYER1
100
AcDbBlockReference
  2
BLKF0003
 10
0.0
 20
0.0
 30
0.0
 41
2.0
 42
2.0
 43
2.0
  0
LINE
  5
369
330
1E
100
AcDbEntity
  8
CSLAYER1
  6
CONTINUOUS
 62
     3
100
AcDbLine
 10
383.249824
 20
282.578324
 30
0.0
 11
443.749824
 21
282.578324
 31
0.0
  0
LINE
  5
373
330
1E
100
AcDbEntity
  8
CSLAYER1
  6
CONTINUOUS
 62
     3
100
AcDbLine
 10
626.710308
 20
265.578324
 30
0.0
 11
626.710308
 21
100.5783239999999
 31
0.0
  0
LINE
  5
374
330
1E
100
AcDbEntity
  8
CSLAYER1
  6
CONTINUOUS
 62
     3
100
AcDbLine
 10
581.710308
 20
265.578324
 30
0.0
 11
581.710308
 21
100.5783239999999
 31
0.0
  0
LINE
  5
375
330
1E
100
AcDbEntity
  8
CSLAYER1
  6
CONTINUOUS
 62
     3
100
AcDbLine
 10
581.710308
 20
265.578324
 30
0.0
 11
626.710308
 21
265.578324
 31
0.0
  0
LINE
  5
376
330
1E
100
AcDbEntity
  8
CSLAYER1
  6
CONTINUOUS
 62
     3
100
AcDbLine
 10
581.710308
 20
257.578324
 30
0.0
 11
626.710308
 21
257.578324
 31
0.0
  0
LINE
  5
377
330
1E
100
AcDbEntity
  8
CSLAYER1
  6
CENTER
 62
     4
100
AcDbLine
 10
621.210308
 20
276.5266
 30
0.0
 11
621.210308
 21
244.36604
 31
0.0
  0
LINE
  5
378
330
1E
100
AcDbEntity
  8
CSLAYER1
  6
CONTINUOUS
 62
     3
100
AcDbLine
 10
581.710308
 20
100.5783239999999
 30
0.0
 11
592.7103080000001
 21
100.5783239999999
 31
0.0
  0
LINE
  5
379
330
1E
100
AcDbEntity
  8
CSLAYER1
  6
CENTER
 62
     4
100
AcDbLine
 10
587.210308
 20
276.5266
 30
0.0
 11
587.210308
 21
244.36604
 31
0.0
  0
LINE
  5
37A
330
1E
100
AcDbEntity
  8
CSLAYER1
  6
CONTINUOUS
 62
     3
100
AcDbLine
 10
592.7103080000001
 20
257.578324
 30
0.0
 11
592.7103080000001
 21
241.146056
 31
0.0
  0
LINE
  5
37B
330
1E
100
AcDbEntity
  8
CSLAYER1
  6
CONTINUOUS
 62
     3
100
AcDbLine
 10
615.710308
 20
257.578324
 30
0.0
 11
615.710308
 21
241.146056
 31
0.0
  0
INSERT
  5
37C
330
1E
100
AcDbEntity
  8
CSLAYER1
100
AcDbBlockReference
  2
BLKF0004
 10
0.0
 20
0.0
 30
0.0
 41
2.0
 42
2.0
 43
2.0
  0
INSERT
  5
37D
330
1E
100
AcDbEntity
  8
CSLAYER1
100
AcDbBlockReference
  2
BLKF0005
 10
0.0
 20
0.0
 30
0.0
 41
2.0
 42
2.0
 43
2.0
  0
LINE
  5
37F
330
1E
100
AcDbEntity
  8
CSLAYER1
  6
CONTINUOUS
 62
     3
100
AcDbLine
 10
581.710308
 20
227.5783239999998
 30
0.0
 11
626.710308
 21
227.5783239999998
 31
0.0
  0
LINE
  5
380
330
1E
100
AcDbEntity
  8
CSLAYER1
  6
CONTINUOUS
 62
     3
100
AcDbLine
 10
591.710308
 20
241.146056
 30
0.0
 11
616.710308
 21
241.146056
 31
0.0
  0
LINE
  5
381
330
1E
100
AcDbEntity
  8
CSLAYER1
  6
CONTINUOUS
 62
     3
100
AcDbLine
 10
616.710308
 20
241.146056
 30
0.0
 11
616.710308
 21
227.5783239999998
 31
0.0
  0
LINE
  5
382
330
1E
100
AcDbEntity
  8
CSLAYER1
  6
CONTINUOUS
 62
     3
100
AcDbLine
 10
591.710308
 20
241.146056
 30
0.0
 11
591.710308
 21
227.5783239999998
 31
0.0
  0
LINE
  5
383
330
1E
100
AcDbEntity
  8
CSLAYER1
  6
CONTINUOUS
 62
     3
100
AcDbLine
 10
600.710308
 20
239.146056
 30
0.0
 11
607.710308
 21
239.146056
 31
0.0
  0
LINE
  5
384
330
1E
100
AcDbEntity
  8
CSLAYER1
  6
CONTINUOUS
 62
     3
100
AcDbLine
 10
607.710308
 20
239.146056
 30
0.0
 11
607.710308
 21
234.646056
 31
0.0
  0
LINE
  5
385
330
1E
100
AcDbEntity
  8
CSLAYER1
  6
CONTINUOUS
 62
     3
100
AcDbLine
 10
600.710308
 20
239.146056
 30
0.0
 11
600.710308
 21
234.646056
 31
0.0
  0
ARC
  5
386
330
1E
100
AcDbEntity
  8
CSLAYER1
  6
CONTINUOUS
 62
     3
100
AcDbCircle
 10
604.210308
 20
234.646056
 30
0.0
 40
3.5
100
AcDbArc
 50
180.0
 51
0.0
  0
INSERT
  5
387
330
1E
100
AcDbEntity
  8
CSLAYER1
100
AcDbBlockReference
  2
BLKF0006
 10
0.0
 20
0.0
 30
0.0
 41
2.0
 42
2.0
 43
2.0
  0
LINE
  5
388
330
1E
100
AcDbEntity
  8
CSLAYER1
  6
CENTER
 62
     4
100
AcDbLine
 10
595.710308
 20
115.8652559999999
 30
0.0
 11
595.710308
 21
91.47365800000001
 31
0.0
  0
ARC
  5
389
330
1E
100
AcDbEntity
  8
CSLAYER1
  6
CONTINUOUS
 62
     3
100
AcDbCircle
 10
595.710308
 20
109.578324
 30
0.0
 40
6.0
100
AcDbArc
 50
300.0
 51
239.9999999999999
  0
ARC
  5
38A
330
1E
100
AcDbEntity
  8
CSLAYER1
  6
CONTINUOUS
 62
     3
100
AcDbCircle
 10
595.710308
 20
109.578324
 30
0.0
 40
3.0
100
AcDbArc
 50
0.0
 51
180.0
  0
LINE
  5
38B
330
1E
100
AcDbEntity
  8
CSLAYER1
  6
CENTER
 62
     4
100
AcDbLine
 10
615.409174
 20
115.9407719999999
 30
0.0
 11
615.409174
 21
93.28603599999999
 31
0.0
  0
ARC
  5
38C
330
1E
100
AcDbEntity
  8
CSLAYER1
  6
CONTINUOUS
 62
     3
100
AcDbCircle
 10
615.409174
 20
109.578324
 30
0.0
 40
5.0
100
AcDbArc
 50
300.0
 51
239.9999999999999
  0
ARC
  5
38D
330
1E
100
AcDbEntity
  8
CSLAYER1
  6
CONTINUOUS
 62
     3
100
AcDbCircle
 10
615.409174
 20
109.578324
 30
0.0
 40
2.5
100
AcDbArc
 50
0.0
 51
180.0
  0
LINE
  5
38E
330
1E
100
AcDbEntity
  8
CSLAYER1
  6
CONTINUOUS
 62
     3
100
AcDbLine
 10
612.9091739999998
 20
109.578324
 30
0.0
 11
612.9091739999998
 21
96.60873000000002
 31
0.0
  0
LINE
  5
38F
330
1E
100
AcDbEntity
  8
CSLAYER1
  6
CONTINUOUS
 62
     3
100
AcDbLine
 10
617.909174
 20
109.578324
 30
0.0
 11
617.909174
 21
96.60873000000002
 31
0.0
  0
LINE
  5
390
330
1E
100
AcDbEntity
  8
CSLAYER1
  6
CONTINUOUS
 62
     3
100
AcDbLine
 10
592.7103080000001
 20
109.578324
 30
0.0
 11
592.7103080000001
 21
95.098414
 31
0.0
  0
LINE
  5
391
330
1E
100
AcDbEntity
  8
CSLAYER1
  6
CONTINUOUS
 62
     3
100
AcDbLine
 10
598.710308
 20
109.578324
 30
0.0
 11
598.710308
 21
94.49428799999996
 31
0.0
  0
LINE
  5
392
330
1E
100
AcDbEntity
  8
CSLAYER1
  6
CONTINUOUS
 62
     3
100
AcDbLine
 10
598.710308
 20
100.5783239999999
 30
0.0
 11
612.9091739999998
 21
100.5783239999999
 31
0.0
  0
LINE
  5
393
330
1E
100
AcDbEntity
  8
CSLAYER1
  6
CONTINUOUS
 62
     3
100
AcDbLine
 10
617.909174
 20
100.5783239999999
 30
0.0
 11
626.710308
 21
100.5783239999999
 31
0.0
  0
LINE
  5
394
330
1E
100
AcDbEntity
  8
CSLAYER1
  6
CONTINUOUS
 62
     3
100
AcDbLine
 10
584.210308
 20
282.578324
 30
0.0
 11
624.210308
 21
282.578324
 31
0.0
  0
LINE
  5
395
330
1E
100
AcDbEntity
  8
CSLAYER1
  6
CONTINUOUS
 62
     3
100
AcDbLine
 10
428.249824
 20
241.146056
 30
0.0
 11
417.249824
 21
241.146056
 31
0.0
  0
LINE
  5
396
330
1E
100
AcDbEntity
  8
CSLAYER1
  6
CENTER
 62
     4
100
AcDbLine
 10
601.292792
 20
366.078324
 30
0.0
 11
607.54035
 21
366.078324
 31
0.0
  0
LINE
  5
397
330
1E
100
AcDbEntity
  8
CSLAYER1
  6
CONTINUOUS
 62
     3
100
AcDbLine
 10
603.632958
 20
365.0783239999998
 30
0.0
 11
603.055608
 21
366.078324
 31
0.0
  0
LINE
  5
398
330
1E
100
AcDbEntity
  8
CSLAYER1
  6
CONTINUOUS
 62
     3
100
AcDbLine
 10
603.055608
 20
366.078324
 30
0.0
 11
603.632958
 21
367.078324
 31
0.0
  0
LINE
  5
399
330
1E
100
AcDbEntity
  8
CSLAYER1
  6
CONTINUOUS
 62
     3
100
AcDbLine
 10
603.632958
 20
367.078324
 30
0.0
 11
604.7876579999996
 21
367.078324
 31
0.0
  0
LINE
  5
39A
330
1E
100
AcDbEntity
  8
CSLAYER1
  6
CONTINUOUS
 62
     3
100
AcDbLine
 10
604.7876579999996
 20
367.078324
 30
0.0
 11
605.3650099999996
 21
366.078324
 31
0.0
  0
LINE
  5
39B
330
1E
100
AcDbEntity
  8
CSLAYER1
  6
CONTINUOUS
 62
     3
100
AcDbLine
 10
605.3650099999996
 20
366.078324
 30
0.0
 11
604.7876579999996
 21
365.0783239999998
 31
0.0
  0
LINE
  5
39C
330
1E
100
AcDbEntity
  8
CSLAYER1
  6
CONTINUOUS
 62
     3
100
AcDbLine
 10
604.7876579999996
 20
365.0783239999998
 30
0.0
 11
603.632958
 21
365.0783239999998
 31
0.0
  0
CIRCLE
  5
39D
330
1E
100
AcDbEntity
  8
CSLAYER1
  6
CONTINUOUS
 62
     3
100
AcDbCircle
 10
604.210308
 20
366.078324
 30
0.0
 40
2.0
  0
CIRCLE
  5
39E
330
1E
100
AcDbEntity
  8
CSLAYER1
  6
CONTINUOUS
 62
     4
100
AcDbCircle
 10
604.210308
 20
366.078324
 30
0.0
 40
1.649999999999999
  0
LINE
  5
39F
330
1E
100
AcDbEntity
  8
CSLAYER1
  6
CENTER
 62
     4
100
AcDbLine
 10
601.292792
 20
340.0783239999995
 30
0.0
 11
607.54035
 21
340.0783239999995
 31
0.0
  0
LINE
  5
3A0
330
1E
100
AcDbEntity
  8
CSLAYER1
  6
CONTINUOUS
 62
     3
100
AcDbLine
 10
603.632958
 20
339.078324
 30
0.0
 11
603.055608
 21
340.0783239999995
 31
0.0
  0
LINE
  5
3A1
330
1E
100
AcDbEntity
  8
CSLAYER1
  6
CONTINUOUS
 62
     3
100
AcDbLine
 10
603.055608
 20
340.0783239999995
 30
0.0
 11
603.632958
 21
341.078324
 31
0.0
  0
LINE
  5
3A2
330
1E
100
AcDbEntity
  8
CSLAYER1
  6
CONTINUOUS
 62
     3
100
AcDbLine
 10
603.632958
 20
341.078324
 30
0.0
 11
604.7876579999996
 21
341.078324
 31
0.0
  0
LINE
  5
3A3
330
1E
100
AcDbEntity
  8
CSLAYER1
  6
CONTINUOUS
 62
     3
100
AcDbLine
 10
604.7876579999996
 20
341.078324
 30
0.0
 11
605.3650099999996
 21
340.0783239999995
 31
0.0
  0
LINE
  5
3A4
330
1E
100
AcDbEntity
  8
CSLAYER1
  6
CONTINUOUS
 62
     3
100
AcDbLine
 10
605.3650099999996
 20
340.0783239999995
 30
0.0
 11
604.7876579999996
 21
339.078324
 31
0.0
  0
LINE
  5
3A5
330
1E
100
AcDbEntity
  8
CSLAYER1
  6
CONTINUOUS
 62
     3
100
AcDbLine
 10
604.7876579999996
 20
339.078324
 30
0.0
 11
603.632958
 21
339.078324
 31
0.0
  0
CIRCLE
  5
3A6
330
1E
100
AcDbEntity
  8
CSLAYER1
  6
CONTINUOUS
 62
     3
100
AcDbCircle
 10
604.210308
 20
340.0783239999995
 30
0.0
 40
2.0
  0
CIRCLE
  5
3A7
330
1E
100
AcDbEntity
  8
CSLAYER1
  6
CONTINUOUS
 62
     4
100
AcDbCircle
 10
604.210308
 20
340.0783239999995
 30
0.0
 40
1.649999999999999
  0
LINE
  5
3A8
330
1E
100
AcDbEntity
  8
CSLAYER1
  6
CONTINUOUS
 62
     3
100
AcDbLine
 10
381.249824
 20
372.578324
 30
0.0
 11
381.249824
 21
383.5783239999998
 31
0.0
  0
LINE
  5
3A9
330
1E
100
AcDbEntity
  8
CSLAYER1
  6
CONTINUOUS
 62
     3
100
AcDbLine
 10
381.249824
 20
383.5783239999998
 30
0.0
 11
392.249824
 21
383.5783239999998
 31
0.0
  0
ARC
  5
3AA
330
1E
100
AcDbEntity
  8
CSLAYER1
  6
CONTINUOUS
 62
     3
100
AcDbCircle
 10
392.249824
 20
384.578324
 30
0.0
 40
1.0
100
AcDbArc
 50
270.0
 51
0.0
  0
LINE
  5
3AB
330
1E
100
AcDbEntity
  8
CSLAYER1
  6
CONTINUOUS
 62
     3
100
AcDbLine
 10
393.249824
 20
384.578324
 30
0.0
 11
393.249824
 21
395.578324
 31
0.0
  0
LINE
  5
3AC
330
1E
100
AcDbEntity
  8
CSLAYER1
  6
CONTINUOUS
 62
     3
100
AcDbLine
 10
393.249824
 20
395.578324
 30
0.0
 11
412.249824
 21
395.578324
 31
0.0
  0
LINE
  5
3AD
330
1E
100
AcDbEntity
  8
CSLAYER1
  6
CONTINUOUS
 62
     3
100
AcDbLine
 10
412.249824
 20
395.578324
 30
0.0
 11
412.249824
 21
384.578324
 31
0.0
  0
ARC
  5
3AE
330
1E
100
AcDbEntity
  8
CSLAYER1
  6
CONTINUOUS
 62
     3
100
AcDbCircle
 10
413.249824
 20
384.578324
 30
0.0
 40
1.0
100
AcDbArc
 50
180.0
 51
270.0
  0
LINE
  5
3AF
330
1E
100
AcDbEntity
  8
CSLAYER1
  6
CONTINUOUS
 62
     3
100
AcDbLine
 10
413.249824
 20
383.5783239999998
 30
0.0
 11
420.749824
 21
383.5783239999998
 31
0.0
  0
LINE
  5
3B0
330
1E
100
AcDbEntity
  8
CSLAYER1
  6
CONTINUOUS
 62
     3
100
AcDbLine
 10
420.749824
 20
383.5783239999998
 30
0.0
 11
420.749824
 21
372.578324
 31
0.0
  0
LINE
  5
3B1
330
1E
100
AcDbEntity
  8
CSLAYER1
  6
CONTINUOUS
 62
     3
100
AcDbLine
 10
420.749824
 20
372.578324
 30
0.0
 11
412.249824
 21
372.578324
 31
0.0
  0
ARC
  5
3B2
330
1E
100
AcDbEntity
  8
CSLAYER1
  6
CONTINUOUS
 62
     3
100
AcDbCircle
 10
412.249824
 20
371.578324
 30
0.0
 40
1.0
100
AcDbArc
 50
90.0
 51
180.0
  0
LINE
  5
3B3
330
1E
100
AcDbEntity
  8
CSLAYER1
  6
CONTINUOUS
 62
     3
100
AcDbLine
 10
411.249824
 20
371.578324
 30
0.0
 11
411.249824
 21
370.578324
 31
0.0
  0
LINE
  5
3B4
330
1E
100
AcDbEntity
  8
CSLAYER1
  6
CONTINUOUS
 62
     3
100
AcDbLine
 10
411.249824
 20
371.7783239999998
 30
0.0
 11
421.749824
 21
371.7783239999998
 31
0.0
  0
LINE
  5
3B5
330
1E
100
AcDbEntity
  8
CSLAYER1
  6
CONTINUOUS
 62
     3
100
AcDbLine
 10
421.749824
 20
370.578324
 30
0.0
 11
421.749824
 21
398.578324
 31
0.0
  0
ARC
  5
3B6
330
1E
100
AcDbEntity
  8
CSLAYER1
  6
CONTINUOUS
 62
     3
100
AcDbCircle
 10
416.749824
 20
398.578324
 30
0.0
 40
5.0
100
AcDbArc
 50
0.0
 51
90.0
  0
LINE
  5
3B7
330
1E
100
AcDbEntity
  8
CSLAYER1
  6
CONTINUOUS
 62
     3
100
AcDbLine
 10
416.749824
 20
403.5783239999998
 30
0.0
 11
413.904524
 21
403.5783239999998
 31
0.0
  0
LINE
  5
3B8
330
1E
100
AcDbEntity
  8
CSLAYER1
  6
CONTINUOUS
 62
     3
100
AcDbLine
 10
413.904524
 20
403.5783239999998
 30
0.0
 11
412.749824
 21
405.578324
 31
0.0
  0
LINE
  5
3B9
330
1E
100
AcDbEntity
  8
CSLAYER1
  6
CONTINUOUS
 62
     3
100
AcDbLine
 10
412.749824
 20
405.578324
 30
0.0
 11
392.749824
 21
405.578324
 31
0.0
  0
LINE
  5
3BA
330
1E
100
AcDbEntity
  8
CSLAYER1
  6
CONTINUOUS
 62
     3
100
AcDbLine
 10
392.749824
 20
405.578324
 30
0.0
 11
391.595124
 21
403.5783239999998
 31
0.0
  0
LINE
  5
3BB
330
1E
100
AcDbEntity
  8
CSLAYER1
  6
CONTINUOUS
 62
     3
100
AcDbLine
 10
391.595124
 20
403.5783239999998
 30
0.0
 11
390.749824
 21
403.5783239999998
 31
0.0
  0
LINE
  5
3BC
330
1E
100
AcDbEntity
  8
CSLAYER1
  6
CONTINUOUS
 62
     3
100
AcDbLine
 10
390.749824
 20
403.5783239999998
 30
0.0
 11
390.749824
 21
420.578324
 31
0.0
  0
LINE
  5
3BD
330
1E
100
AcDbEntity
  8
CSLAYER1
  6
CONTINUOUS
 62
     3
100
AcDbLine
 10
390.749824
 20
420.578324
 30
0.0
 11
428.749824
 21
420.578324
 31
0.0
  0
LINE
  5
3BE
330
1E
100
AcDbEntity
  8
CSLAYER1
  6
CONTINUOUS
 62
     3
100
AcDbLine
 10
428.749824
 20
420.578324
 30
0.0
 11
433.749824
 21
415.5783239999998
 31
0.0
  0
LINE
  5
3BF
330
1E
100
AcDbEntity
  8
CSLAYER1
  6
CONTINUOUS
 62
     3
100
AcDbLine
 10
433.749824
 20
415.5783239999998
 30
0.0
 11
433.749824
 21
370.578324
 31
0.0
  0
LINE
  5
3C0
330
1E
100
AcDbEntity
  8
CSLAYER1
  6
CONTINUOUS
 62
     3
100
AcDbLine
 10
434.249824
 20
370.578324
 30
0.0
 11
434.249824
 21
371.7783239999998
 31
0.0
  0
LINE
  5
3C1
330
1E
100
AcDbEntity
  8
CSLAYER1
  6
CONTINUOUS
 62
     3
100
AcDbLine
 10
433.749824
 20
371.7783239999998
 30
0.0
 11
443.249824
 21
371.7783239999998
 31
0.0
  0
LINE
  5
3C2
330
1E
100
AcDbEntity
  8
CSLAYER1
  6
CONTINUOUS
 62
     3
100
AcDbLine
 10
443.249824
 20
371.7783239999998
 30
0.0
 11
443.249824
 21
334.378324
 31
0.0
  0
LINE
  5
3C3
330
1E
100
AcDbEntity
  8
CSLAYER1
  6
CONTINUOUS
 62
     3
100
AcDbLine
 10
443.249824
 20
334.378324
 30
0.0
 11
411.249824
 21
334.378324
 31
0.0
  0
LINE
  5
3C4
330
1E
100
AcDbEntity
  8
CSLAYER1
  6
CONTINUOUS
 62
     3
100
AcDbLine
 10
411.249824
 20
334.078324
 30
0.0
 11
411.249824
 21
335.578324
 31
0.0
  0
LINE
  5
3C5
330
1E
100
AcDbEntity
  8
CSLAYER1
  6
CONTINUOUS
 62
     3
100
AcDbLine
 10
392.149824
 20
334.078324
 30
0.0
 11
428.749824
 21
334.078324
 31
0.0
  0
LINE
  5
3C6
330
1E
100
AcDbEntity
  8
CSLAYER1
  6
CONTINUOUS
 62
     3
100
AcDbLine
 10
435.749824
 20
325.5783239999995
 30
0.0
 11
443.749824
 21
325.5783239999995
 31
0.0
  0
ARC
  5
3C7
330
1E
100
AcDbEntity
  8
CSLAYER1
  6
CONTINUOUS
 62
     3
100
AcDbCircle
 10
441.929504
 20
333.6182299999998
 30
0.0
 40
1.0
100
AcDbArc
 50
286.2570279999999
 51
355.0
  0
LINE
  5
3C8
330
1E
100
AcDbEntity
  8
CSLAYER1
  6
CONTINUOUS
 62
     3
100
AcDbLine
 10
442.925698
 20
333.531076
 30
0.0
 11
442.999824
 21
334.378324
 31
0.0
  0
LINE
  5
3C9
330
1E
100
AcDbEntity
  8
CSLAYER1
  6
CONTINUOUS
 62
     3
100
AcDbLine
 10
443.249824
 20
335.578324
 30
0.0
 11
390.249824
 21
335.578324
 31
0.0
  0
LINE
  5
3CA
330
1E
100
AcDbEntity
  8
CSLAYER1
  6
CONTINUOUS
 62
     3
100
AcDbLine
 10
390.249824
 20
334.378324
 30
0.0
 11
400.249824
 21
334.378324
 31
0.0
  0
LINE
  5
3CB
330
1E
100
AcDbEntity
  8
CSLAYER1
  6
CONTINUOUS
 62
     3
100
AcDbLine
 10
400.249824
 20
334.078324
 30
0.0
 11
400.249824
 21
335.578324
 31
0.0
  0
LINE
  5
3CC
330
1E
100
AcDbEntity
  8
CSLAYER1
  6
CONTINUOUS
 62
     3
100
AcDbLine
 10
395.999824
 20
334.378324
 30
0.0
 11
395.973576
 21
334.078324
 31
0.0
  0
ARC
  5
3CD
330
1E
100
AcDbEntity
  8
CSLAYER1
  6
CONTINUOUS
 62
     3
100
AcDbCircle
 10
393.249824
 20
339.378324
 30
0.0
 40
7.0
100
AcDbArc
 50
253.7429719999999
 51
260.958904
  0
ARC
  5
3CE
330
1E
100
AcDbEntity
  8
CSLAYER1
  6
CONTINUOUS
 62
     3
100
AcDbCircle
 10
391.5701419999998
 20
333.6182299999998
 30
0.0
 40
1.0
100
AcDbArc
 50
185.0
 51
253.7429719999999
  0
LINE
  5
3CF
330
1E
100
AcDbEntity
  8
CSLAYER1
  6
CONTINUOUS
 62
     3
100
AcDbLine
 10
390.5739479999998
 20
333.531076
 30
0.0
 11
390.499824
 21
334.378324
 31
0.0
  0
LINE
  5
3D0
330
1E
100
AcDbEntity
  8
CSLAYER1
  6
CONTINUOUS
 62
     3
100
AcDbLine
 10
390.249824
 20
334.378324
 30
0.0
 11
390.249824
 21
371.7783239999998
 31
0.0
  0
LINE
  5
3D1
330
1E
100
AcDbEntity
  8
CSLAYER1
  6
CONTINUOUS
 62
     3
100
AcDbLine
 10
390.249824
 20
371.7783239999998
 30
0.0
 11
400.249824
 21
371.7783239999998
 31
0.0
  0
LINE
  5
3D2
330
1E
100
AcDbEntity
  8
CSLAYER1
  6
CONTINUOUS
 62
     3
100
AcDbLine
 10
400.249824
 20
371.578324
 30
0.0
 11
400.249824
 21
370.578324
 31
0.0
  0
ARC
  5
3D3
330
1E
100
AcDbEntity
  8
CSLAYER1
  6
CONTINUOUS
 62
     3
100
AcDbCircle
 10
399.249824
 20
371.578324
 30
0.0
 40
1.0
100
AcDbArc
 50
0.0
 51
90.0
  0
LINE
  5
3D4
330
1E
100
AcDbEntity
  8
CSLAYER1
  6
CONTINUOUS
 62
     3
100
AcDbLine
 10
399.249824
 20
372.578324
 30
0.0
 11
381.249824
 21
372.578324
 31
0.0
  0
LINE
  5
3D5
330
1E
100
AcDbEntity
  8
CSLAYER1
  6
CONTINUOUS
 62
     3
100
AcDbLine
 10
383.249824
 20
370.578324
 30
0.0
 11
443.749824
 21
370.578324
 31
0.0
  0
LINE
  5
3D6
330
1E
100
AcDbEntity
  8
CSLAYER1
  6
CONTINUOUS
 62
     3
100
AcDbLine
 10
390.499824
 20
371.7783239999998
 30
0.0
 11
390.569814
 21
372.578324
 31
0.0
  0
LINE
  5
3D7
330
1E
100
AcDbEntity
  8
CSLAYER1
  6
CONTINUOUS
 62
     3
100
AcDbLine
 10
395.9298319999998
 20
372.578324
 30
0.0
 11
395.999824
 21
371.7783239999998
 31
0.0
  0
LINE
  5
3D8
330
1E
100
AcDbEntity
  8
CSLAYER1
  6
CONTINUOUS
 62
     3
100
AcDbLine
 10
393.249824
 20
390.0783239999998
 30
0.0
 11
412.249824
 21
390.0783239999998
 31
0.0
  0
LINE
  5
3D9
330
1E
100
AcDbEntity
  8
CSLAYER1
  6
CONTINUOUS
 62
     3
100
AcDbLine
 10
412.249824
 20
394.924886
 30
0.0
 11
393.249824
 21
394.924886
 31
0.0
  0
LINE
  5
3DA
330
1E
100
AcDbEntity
  8
CSLAYER1
  6
CONTINUOUS
 62
     3
100
AcDbLine
 10
415.249824
 20
394.078324
 30
0.0
 11
415.249824
 21
403.5783239999998
 31
0.0
  0
LINE
  5
3DB
330
1E
100
AcDbEntity
  8
CSLAYER1
  6
CONTINUOUS
 62
     3
100
AcDbLine
 10
420.249824
 20
402.1490379999998
 30
0.0
 11
420.249824
 21
394.078324
 31
0.0
  0
LINE
  5
3DC
330
1E
100
AcDbEntity
  8
CSLAYER1
  6
CONTINUOUS
 62
     3
100
AcDbLine
 10
419.749824
 20
393.5783239999998
 30
0.0
 11
415.749824
 21
393.5783239999998
 31
0.0
  0
LINE
  5
3DD
330
1E
100
AcDbEntity
  8
CSLAYER1
  6
CONTINUOUS
 62
     3
100
AcDbLine
 10
437.499824
 20
371.7783239999998
 30
0.0
 11
437.573948
 21
372.625572
 31
0.0
  0
ARC
  5
3DE
330
1E
100
AcDbEntity
  8
CSLAYER1
  6
CONTINUOUS
 62
     3
100
AcDbCircle
 10
438.570142
 20
372.538418
 30
0.0
 40
1.0
100
AcDbArc
 50
106.257028
 51
175.0
  0
ARC
  5
3DF
330
1E
100
AcDbEntity
  8
CSLAYER1
  6
CONTINUOUS
 62
     3
100
AcDbCircle
 10
440.249824
 20
366.7783239999998
 30
0.0
 40
7.0
100
AcDbArc
 50
73.742972
 51
106.257028
  0
ARC
  5
3E0
330
1E
100
AcDbEntity
  8
CSLAYER1
  6
CONTINUOUS
 62
     3
100
AcDbCircle
 10
441.929504
 20
372.538418
 30
0.0
 40
1.0
100
AcDbArc
 50
5.0
 51
73.742972
  0
LINE
  5
3E1
330
1E
100
AcDbEntity
  8
CSLAYER1
  6
CONTINUOUS
 62
     3
100
AcDbLine
 10
442.925698
 20
372.625572
 30
0.0
 11
442.999824
 21
371.7783239999998
 31
0.0
  0
LINE
  5
3E2
330
1E
100
AcDbEntity
  8
CSLAYER1
  6
CONTINUOUS
 62
     3
100
AcDbLine
 10
441.5498239999998
 20
346.3288799999998
 30
0.0
 11
440.249824
 21
347.0794339999998
 31
0.0
  0
LINE
  5
3E3
330
1E
100
AcDbEntity
  8
CSLAYER1
  6
CONTINUOUS
 62
     3
100
AcDbLine
 10
440.249824
 20
347.0794339999998
 30
0.0
 11
438.949824
 21
346.3288799999998
 31
0.0
  0
LINE
  5
3E4
330
1E
100
AcDbEntity
  8
CSLAYER1
  6
CONTINUOUS
 62
     3
100
AcDbLine
 10
438.949824
 20
346.3288799999998
 30
0.0
 11
438.949824
 21
344.8277679999998
 31
0.0
  0
LINE
  5
3E5
330
1E
100
AcDbEntity
  8
CSLAYER1
  6
CONTINUOUS
 62
     3
100
AcDbLine
 10
438.949824
 20
344.8277679999998
 30
0.0
 11
440.249824
 21
344.077214
 31
0.0
  0
LINE
  5
3E6
330
1E
100
AcDbEntity
  8
CSLAYER1
  6
CONTINUOUS
 62
     3
100
AcDbLine
 10
440.249824
 20
344.077214
 30
0.0
 11
441.5498239999998
 21
344.8277679999998
 31
0.0
  0
LINE
  5
3E7
330
1E
100
AcDbEntity
  8
CSLAYER1
  6
CONTINUOUS
 62
     3
100
AcDbLine
 10
441.5498239999998
 20
344.8277679999998
 30
0.0
 11
441.5498239999998
 21
346.3288799999998
 31
0.0
  0
CIRCLE
  5
3E8
330
1E
100
AcDbEntity
  8
CSLAYER1
  6
CONTINUOUS
 62
     3
100
AcDbCircle
 10
440.249824
 20
345.578324
 30
0.0
 40
2.75
  0
LINE
  5
3E9
330
1E
100
AcDbEntity
  8
CSLAYER1
  6
CONTINUOUS
 62
     3
100
AcDbLine
 10
437.499824
 20
334.378324
 30
0.0
 11
437.573948
 21
333.531076
 31
0.0
  0
ARC
  5
3EA
330
1E
100
AcDbEntity
  8
CSLAYER1
  6
CONTINUOUS
 62
     3
100
AcDbCircle
 10
438.570142
 20
333.6182299999998
 30
0.0
 40
1.0
100
AcDbArc
 50
185.0
 51
253.7429719999999
  0
ARC
  5
3EB
330
1E
100
AcDbEntity
  8
CSLAYER1
  6
CONTINUOUS
 62
     3
100
AcDbCircle
 10
440.249824
 20
339.378324
 30
0.0
 40
7.0
100
AcDbArc
 50
253.7429719999999
 51
286.2570279999999
  0
LINE
  5
3EC
330
1E
100
AcDbEntity
  8
CSLAYER1
  6
CONTINUOUS
 62
     3
100
AcDbLine
 10
434.249824
 20
334.378324
 30
0.0
 11
434.249824
 21
335.578324
 31
0.0
  0
LINE
  5
3ED
330
1E
100
AcDbEntity
  8
CSLAYER1
  6
CONTINUOUS
 62
     3
100
AcDbLine
 10
424.6337079999998
 20
325.81576
 30
0.0
 11
424.9872599999998
 21
325.462208
 31
0.0
  0
LINE
  5
3EE
330
1E
100
AcDbEntity
  8
CSLAYER1
  6
CONTINUOUS
 62
     3
100
AcDbLine
 10
424.9872599999998
 20
325.462208
 30
0.0
 11
424.8104839999998
 21
325.2854299999996
 31
0.0
  0
ARC
  5
3EF
330
1E
100
AcDbEntity
  8
CSLAYER1
  6
CONTINUOUS
 62
     3
100
AcDbCircle
 10
425.51759
 20
324.578324
 30
0.0
 40
1.0
100
AcDbArc
 50
135.0
 51
225.0
  0
LINE
  5
3F0
330
1E
100
AcDbEntity
  8
CSLAYER1
  6
CONTINUOUS
 62
     3
100
AcDbLine
 10
424.8104839999998
 20
323.871218
 30
0.0
 11
424.9872599999998
 21
323.69444
 31
0.0
  0
LINE
  5
3F1
330
1E
100
AcDbEntity
  8
CSLAYER1
  6
CONTINUOUS
 62
     3
100
AcDbLine
 10
424.9872599999998
 20
323.69444
 30
0.0
 11
424.6337079999998
 21
323.340888
 31
0.0
  0
LINE
  5
3F2
330
1E
100
AcDbEntity
  8
CSLAYER1
  6
CONTINUOUS
 62
     3
100
AcDbLine
 10
424.6337079999998
 20
323.340888
 30
0.0
 11
424.45693
 21
323.517664
 31
0.0
  0
ARC
  5
3F3
330
1E
100
AcDbEntity
  8
CSLAYER1
  6
CONTINUOUS
 62
     3
100
AcDbCircle
 10
423.749824
 20
322.810556
 30
0.0
 40
1.0
100
AcDbArc
 50
45.0
 51
135.0
  0
LINE
  5
3F4
330
1E
100
AcDbEntity
  8
CSLAYER1
  6
CONTINUOUS
 62
     3
100
AcDbLine
 10
423.042716
 20
323.517664
 30
0.0
 11
422.86594
 21
323.340888
 31
0.0
  0
LINE
  5
3F5
330
1E
100
AcDbEntity
  8
CSLAYER1
  6
CONTINUOUS
 62
     3
100
AcDbLine
 10
422.86594
 20
323.340888
 30
0.0
 11
422.512386
 21
323.69444
 31
0.0
  0
LINE
  5
3F6
330
1E
100
AcDbEntity
  8
CSLAYER1
  6
CONTINUOUS
 62
     3
100
AcDbLine
 10
422.512386
 20
323.69444
 30
0.0
 11
422.6891639999998
 21
323.871218
 31
0.0
  0
ARC
  5
3F7
330
1E
100
AcDbEntity
  8
CSLAYER1
  6
CONTINUOUS
 62
     3
100
AcDbCircle
 10
421.9820559999998
 20
324.578324
 30
0.0
 40
1.0
100
AcDbArc
 50
315.0
 51
45.0
  0
LINE
  5
3F8
330
1E
100
AcDbEntity
  8
CSLAYER1
  6
CONTINUOUS
 62
     3
100
AcDbLine
 10
422.6891639999998
 20
325.2854299999996
 30
0.0
 11
422.512386
 21
325.462208
 31
0.0
  0
LINE
  5
3F9
330
1E
100
AcDbEntity
  8
CSLAYER1
  6
CONTINUOUS
 62
     3
100
AcDbLine
 10
422.512386
 20
325.462208
 30
0.0
 11
422.86594
 21
325.81576
 31
0.0
  0
LINE
  5
3FA
330
1E
100
AcDbEntity
  8
CSLAYER1
  6
CONTINUOUS
 62
     3
100
AcDbLine
 10
422.86594
 20
325.81576
 30
0.0
 11
423.042716
 21
325.638984
 31
0.0
  0
ARC
  5
3FB
330
1E
100
AcDbEntity
  8
CSLAYER1
  6
CONTINUOUS
 62
     3
100
AcDbCircle
 10
423.749824
 20
326.34609
 30
0.0
 40
1.0
100
AcDbArc
 50
225.0
 51
315.0
  0
LINE
  5
3FC
330
1E
100
AcDbEntity
  8
CSLAYER1
  6
CONTINUOUS
 62
     3
100
AcDbLine
 10
424.45693
 20
325.638984
 30
0.0
 11
424.6337079999998
 21
325.81576
 31
0.0
  0
CIRCLE
  5
3FD
330
1E
100
AcDbEntity
  8
CSLAYER1
  6
CONTINUOUS
 62
     3
100
AcDbCircle
 10
423.749824
 20
324.578324
 30
0.0
 40
2.799999999999998
  0
LINE
  5
3FE
330
1E
100
AcDbEntity
  8
CSLAYER1
  6
CONTINUOUS
 62
     3
100
AcDbLine
 10
424.6337079999998
 20
298.81576
 30
0.0
 11
424.9872599999998
 21
298.462208
 31
0.0
  0
LINE
  5
3FF
330
1E
100
AcDbEntity
  8
CSLAYER1
  6
CONTINUOUS
 62
     3
100
AcDbLine
 10
424.9872599999998
 20
298.462208
 30
0.0
 11
424.8104839999998
 21
298.2854299999996
 31
0.0
  0
ARC
  5
400
330
1E
100
AcDbEntity
  8
CSLAYER1
  6
CONTINUOUS
 62
     3
100
AcDbCircle
 10
425.51759
 20
297.578324
 30
0.0
 40
1.0
100
AcDbArc
 50
135.0
 51
225.0
  0
LINE
  5
401
330
1E
100
AcDbEntity
  8
CSLAYER1
  6
CONTINUOUS
 62
     3
100
AcDbLine
 10
424.8104839999998
 20
296.871218
 30
0.0
 11
424.9872599999998
 21
296.69444
 31
0.0
  0
LINE
  5
402
330
1E
100
AcDbEntity
  8
CSLAYER1
  6
CONTINUOUS
 62
     3
100
AcDbLine
 10
424.9872599999998
 20
296.69444
 30
0.0
 11
424.6337079999998
 21
296.340888
 31
0.0
  0
LINE
  5
403
330
1E
100
AcDbEntity
  8
CSLAYER1
  6
CONTINUOUS
 62
     3
100
AcDbLine
 10
424.6337079999998
 20
296.340888
 30
0.0
 11
424.45693
 21
296.517664
 31
0.0
  0
ARC
  5
404
330
1E
100
AcDbEntity
  8
CSLAYER1
  6
CONTINUOUS
 62
     3
100
AcDbCircle
 10
423.749824
 20
295.810556
 30
0.0
 40
1.0
100
AcDbArc
 50
45.0
 51
135.0
  0
LINE
  5
405
330
1E
100
AcDbEntity
  8
CSLAYER1
  6
CONTINUOUS
 62
     3
100
AcDbLine
 10
423.042716
 20
296.517664
 30
0.0
 11
422.86594
 21
296.340888
 31
0.0
  0
LINE
  5
406
330
1E
100
AcDbEntity
  8
CSLAYER1
  6
CONTINUOUS
 62
     3
100
AcDbLine
 10
422.86594
 20
296.340888
 30
0.0
 11
422.512386
 21
296.69444
 31
0.0
  0
LINE
  5
407
330
1E
100
AcDbEntity
  8
CSLAYER1
  6
CONTINUOUS
 62
     3
100
AcDbLine
 10
422.512386
 20
296.69444
 30
0.0
 11
422.6891639999998
 21
296.871218
 31
0.0
  0
ARC
  5
408
330
1E
100
AcDbEntity
  8
CSLAYER1
  6
CONTINUOUS
 62
     3
100
AcDbCircle
 10
421.9820559999998
 20
297.578324
 30
0.0
 40
1.0
100
AcDbArc
 50
315.0
 51
45.0
  0
LINE
  5
409
330
1E
100
AcDbEntity
  8
CSLAYER1
  6
CONTINUOUS
 62
     3
100
AcDbLine
 10
422.6891639999998
 20
298.2854299999996
 30
0.0
 11
422.512386
 21
298.462208
 31
0.0
  0
LINE
  5
40A
330
1E
100
AcDbEntity
  8
CSLAYER1
  6
CONTINUOUS
 62
     3
100
AcDbLine
 10
422.512386
 20
298.462208
 30
0.0
 11
422.86594
 21
298.81576
 31
0.0
  0
LINE
  5
40B
330
1E
100
AcDbEntity
  8
CSLAYER1
  6
CONTINUOUS
 62
     3
100
AcDbLine
 10
422.86594
 20
298.81576
 30
0.0
 11
423.042716
 21
298.638984
 31
0.0
  0
ARC
  5
40C
330
1E
100
AcDbEntity
  8
CSLAYER1
  6
CONTINUOUS
 62
     3
100
AcDbCircle
 10
423.749824
 20
299.34609
 30
0.0
 40
1.0
100
AcDbArc
 50
225.0
 51
315.0
  0
LINE
  5
40D
330
1E
100
AcDbEntity
  8
CSLAYER1
  6
CONTINUOUS
 62
     3
100
AcDbLine
 10
424.45693
 20
298.638984
 30
0.0
 11
424.6337079999998
 21
298.81576
 31
0.0
  0
CIRCLE
  5
40E
330
1E
100
AcDbEntity
  8
CSLAYER1
  6
CONTINUOUS
 62
     3
100
AcDbCircle
 10
423.749824
 20
297.578324
 30
0.0
 40
2.799999999999998
  0
LINE
  5
40F
330
1E
100
AcDbEntity
  8
CSLAYER1
  6
CONTINUOUS
 62
     3
100
AcDbLine
 10
440.249824
 20
359.077214
 30
0.0
 11
441.5498239999998
 21
359.8277679999998
 31
0.0
  0
LINE
  5
410
330
1E
100
AcDbEntity
  8
CSLAYER1
  6
CONTINUOUS
 62
     3
100
AcDbLine
 10
441.5498239999998
 20
359.8277679999998
 30
0.0
 11
441.5498239999998
 21
361.3288799999998
 31
0.0
  0
LINE
  5
411
330
1E
100
AcDbEntity
  8
CSLAYER1
  6
CONTINUOUS
 62
     3
100
AcDbLine
 10
441.5498239999998
 20
361.3288799999998
 30
0.0
 11
440.249824
 21
362.0794339999998
 31
0.0
  0
LINE
  5
412
330
1E
100
AcDbEntity
  8
CSLAYER1
  6
CONTINUOUS
 62
     3
100
AcDbLine
 10
440.249824
 20
362.0794339999998
 30
0.0
 11
438.949824
 21
361.3288799999998
 31
0.0
  0
LINE
  5
413
330
1E
100
AcDbEntity
  8
CSLAYER1
  6
CONTINUOUS
 62
     3
100
AcDbLine
 10
438.949824
 20
361.3288799999998
 30
0.0
 11
438.949824
 21
359.8277679999998
 31
0.0
  0
LINE
  5
414
330
1E
100
AcDbEntity
  8
CSLAYER1
  6
CONTINUOUS
 62
     3
100
AcDbLine
 10
438.949824
 20
359.8277679999998
 30
0.0
 11
440.249824
 21
359.077214
 31
0.0
  0
CIRCLE
  5
415
330
1E
100
AcDbEntity
  8
CSLAYER1
  6
CONTINUOUS
 62
     3
100
AcDbCircle
 10
440.249824
 20
360.578324
 30
0.0
 40
2.75
  0
LINE
  5
416
330
1E
100
AcDbEntity
  8
CSLAYER1
  6
CONTINUOUS
 62
     3
100
AcDbLine
 10
394.5498239999998
 20
359.8277679999998
 30
0.0
 11
393.249824
 21
359.077214
 31
0.0
  0
LINE
  5
417
330
1E
100
AcDbEntity
  8
CSLAYER1
  6
CONTINUOUS
 62
     3
100
AcDbLine
 10
393.249824
 20
359.077214
 30
0.0
 11
391.949824
 21
359.8277679999998
 31
0.0
  0
LINE
  5
418
330
1E
100
AcDbEntity
  8
CSLAYER1
  6
CONTINUOUS
 62
     3
100
AcDbLine
 10
391.949824
 20
359.8277679999998
 30
0.0
 11
391.949824
 21
361.3288799999998
 31
0.0
  0
LINE
  5
419
330
1E
100
AcDbEntity
  8
CSLAYER1
  6
CONTINUOUS
 62
     3
100
AcDbLine
 10
391.949824
 20
361.3288799999998
 30
0.0
 11
393.249824
 21
362.0794339999998
 31
0.0
  0
LINE
  5
41A
330
1E
100
AcDbEntity
  8
CSLAYER1
  6
CONTINUOUS
 62
     3
100
AcDbLine
 10
393.249824
 20
362.0794339999998
 30
0.0
 11
394.5498239999998
 21
361.3288799999998
 31
0.0
  0
LINE
  5
41B
330
1E
100
AcDbEntity
  8
CSLAYER1
  6
CONTINUOUS
 62
     3
100
AcDbLine
 10
394.5498239999998
 20
361.3288799999998
 30
0.0
 11
394.5498239999998
 21
359.8277679999998
 31
0.0
  0
CIRCLE
  5
41C
330
1E
100
AcDbEntity
  8
CSLAYER1
  6
CONTINUOUS
 62
     3
100
AcDbCircle
 10
393.249824
 20
360.578324
 30
0.0
 40
2.75
  0
LINE
  5
41D
330
1E
100
AcDbEntity
  8
CSLAYER1
  6
CONTINUOUS
 62
     3
100
AcDbLine
 10
393.249824
 20
347.0794339999998
 30
0.0
 11
391.949824
 21
346.3288799999998
 31
0.0
  0
LINE
  5
41E
330
1E
100
AcDbEntity
  8
CSLAYER1
  6
CONTINUOUS
 62
     3
100
AcDbLine
 10
391.949824
 20
346.3288799999998
 30
0.0
 11
391.949824
 21
344.8277679999998
 31
0.0
  0
LINE
  5
41F
330
1E
100
AcDbEntity
  8
CSLAYER1
  6
CONTINUOUS
 62
     3
100
AcDbLine
 10
391.949824
 20
344.8277679999998
 30
0.0
 11
393.249824
 21
344.077214
 31
0.0
  0
LINE
  5
420
330
1E
100
AcDbEntity
  8
CSLAYER1
  6
CONTINUOUS
 62
     3
100
AcDbLine
 10
393.249824
 20
344.077214
 30
0.0
 11
394.5498239999998
 21
344.8277679999998
 31
0.0
  0
LINE
  5
421
330
1E
100
AcDbEntity
  8
CSLAYER1
  6
CONTINUOUS
 62
     3
100
AcDbLine
 10
394.5498239999998
 20
344.8277679999998
 30
0.0
 11
394.5498239999998
 21
346.3288799999998
 31
0.0
  0
LINE
  5
422
330
1E
100
AcDbEntity
  8
CSLAYER1
  6
CONTINUOUS
 62
     3
100
AcDbLine
 10
394.5498239999998
 20
346.3288799999998
 30
0.0
 11
393.249824
 21
347.0794339999998
 31
0.0
  0
CIRCLE
  5
423
330
1E
100
AcDbEntity
  8
CSLAYER1
  6
CONTINUOUS
 62
     3
100
AcDbCircle
 10
393.249824
 20
345.578324
 30
0.0
 40
2.75
  0
CIRCLE
  5
424
330
1E
100
AcDbEntity
  8
CSLAYER1
  6
CONTINUOUS
 62
     3
100
AcDbCircle
 10
387.249824
 20
317.078324
 30
0.0
 40
2.149999999999998
  0
CIRCLE
  5
425
330
1E
100
AcDbEntity
  8
CSLAYER1
  6
CONTINUOUS
 62
     3
100
AcDbCircle
 10
387.249824
 20
307.078324
 30
0.0
 40
2.149999999999998
  0
POINT
  5
426
330
1E
100
AcDbEntity
  8
CSLAYER1
 62
     3
100
AcDbPoint
 10
440.249824
 20
360.578324
 30
0.0
  0
POINT
  5
427
330
1E
100
AcDbEntity
  8
CSLAYER1
 62
     3
100
AcDbPoint
 10
440.249824
 20
345.578324
 30
0.0
  0
POINT
  5
428
330
1E
100
AcDbEntity
  8
CSLAYER1
 62
     3
100
AcDbPoint
 10
423.749824
 20
324.578324
 30
0.0
  0
POINT
  5
429
330
1E
100
AcDbEntity
  8
CSLAYER1
 62
     3
100
AcDbPoint
 10
423.749824
 20
297.578324
 30
0.0
  0
LINE
  5
42A
330
1E
100
AcDbEntity
  8
CSLAYER1
  6
CONTINUOUS
 62
     4
100
AcDbLine
 10
379.0263959999999
 20
348.04061
 30
0.0
 11
379.0263959999999
 21
353.078324
 31
0.0
  0
LINE
  5
42B
330
1E
100
AcDbEntity
  8
CSLAYER1
  6
CONTINUOUS
 62
     4
100
AcDbLine
 10
379.0263959999999
 20
353.078324
 30
0.0
 11
377.47348
 21
347.282768
 31
0.0
  0
LINE
  5
42C
330
1E
100
AcDbEntity
  8
CSLAYER1
  6
CONTINUOUS
 62
     4
100
AcDbLine
 10
379.0263959999999
 20
353.078324
 30
0.0
 11
380.57931
 21
347.282768
 31
0.0
  0
LINE
  5
42D
330
1E
100
AcDbEntity
  8
CSLAYER1
  6
CENTER
 62
     4
100
AcDbLine
 10
380.98068
 20
353.078324
 30
0.0
 11
449.654704
 21
353.078324
 31
0.0
  0
LINE
  5
42E
330
1E
100
AcDbEntity
  8
CSLAYER1
  6
CENTER
 62
     4
100
AcDbLine
 10
447.260604
 20
345.578324
 30
0.0
 11
435.69211
 21
345.578324
 31
0.0
  0
LINE
  5
42F
330
1E
100
AcDbEntity
  8
CSLAYER1
  6
CENTER
 62
     4
100
AcDbLine
 10
434.937824
 20
347.328324
 30
0.0
 11
422.7707419999998
 21
347.328324
 31
0.0
  0
LINE
  5
430
330
1E
100
AcDbEntity
  8
CSLAYER1
  6
CENTER
 62
     4
100
AcDbLine
 10
440.249824
 20
329.4655979999998
 30
0.0
 11
440.249824
 21
377.5153299999998
 31
0.0
  0
LINE
  5
431
330
1E
100
AcDbEntity
  8
CSLAYER1
  6
CENTER
 62
     4
100
AcDbLine
 10
393.601134
 20
307.078324
 30
0.0
 11
381.158266
 21
307.078324
 31
0.0
  0
LINE
  5
432
330
1E
100
AcDbEntity
  8
CSLAYER1
  6
CENTER
 62
     4
100
AcDbLine
 10
387.249824
 20
301.499498
 30
0.0
 11
387.249824
 21
322.4261419999998
 31
0.0
  0
LINE
  5
433
330
1E
100
AcDbEntity
  8
CSLAYER1
  6
CENTER
 62
     4
100
AcDbLine
 10
381.158266
 20
317.078324
 30
0.0
 11
394.1667199999998
 21
317.078324
 31
0.0
  0
LINE
  5
434
330
1E
100
AcDbEntity
  8
CSLAYER1
  6
CENTER
 62
     4
100
AcDbLine
 10
393.249824
 20
377.9803279999998
 30
0.0
 11
393.249824
 21
329.3106
 31
0.0
  0
LINE
  5
435
330
1E
100
AcDbEntity
  8
CSLAYER1
  6
CENTER
 62
     4
100
AcDbLine
 10
400.591424
 20
343.078324
 30
0.0
 11
411.0943139999998
 21
343.078324
 31
0.0
  0
LINE
  5
436
330
1E
100
AcDbEntity
  8
CSLAYER1
  6
CENTER
 62
     4
100
AcDbLine
 10
411.0943139999998
 20
363.0783239999998
 30
0.0
 11
400.591424
 21
363.0783239999998
 31
0.0
  0
LINE
  5
437
330
1E
100
AcDbEntity
  8
CSLAYER1
  6
CENTER
 62
     4
100
AcDbLine
 10
397.2108719999998
 20
360.578324
 30
0.0
 11
387.910924
 21
360.578324
 31
0.0
  0
LINE
  5
438
330
1E
100
AcDbEntity
  8
CSLAYER1
  6
CENTER
 62
     4
100
AcDbLine
 10
387.2909279999998
 20
345.578324
 30
0.0
 11
398.140868
 21
345.578324
 31
0.0
  0
LINE
  5
439
330
1E
100
AcDbEntity
  8
CSLAYER1
  6
CENTER
 62
     4
100
AcDbLine
 10
415.913644
 20
297.578324
 30
0.0
 11
431.68419
 21
297.578324
 31
0.0
  0
LINE
  5
43A
330
1E
100
AcDbEntity
  8
CSLAYER1
  6
CENTER
 62
     4
100
AcDbLine
 10
423.749824
 20
302.4249879999998
 30
0.0
 11
423.749824
 21
291.9112919999998
 31
0.0
  0
LINE
  5
43B
330
1E
100
AcDbEntity
  8
CSLAYER1
  6
CENTER
 62
     4
100
AcDbLine
 10
423.749824
 20
320.9991839999998
 30
0.0
 11
423.749824
 21
328.358772
 31
0.0
  0
LINE
  5
43C
330
1E
100
AcDbEntity
  8
CSLAYER1
  6
CENTER
 62
     4
100
AcDbLine
 10
427.749824
 20
335.712152
 30
0.0
 11
427.749824
 21
371.8359919999998
 31
0.0
  0
LINE
  5
43D
330
1E
100
AcDbEntity
  8
CSLAYER1
  6
DASHED
 62
     4
100
AcDbLine
 10
420.749824
 20
380.5325119999998
 30
0.0
 11
381.249824
 21
380.5325119999998
 31
0.0
  0
LINE
  5
43E
330
1E
100
AcDbEntity
  8
CSLAYER1
  6
CONTINUOUS
 62
     4
100
AcDbLine
 10
381.249824
 20
379.728324
 30
0.0
 11
380.249824
 21
379.728324
 31
0.0
  0
LINE
  5
43F
330
1E
100
AcDbEntity
  8
CSLAYER1
  6
DASHED
 62
     4
100
AcDbLine
 10
381.249824
 20
379.728324
 30
0.0
 11
406.249824
 21
379.728324
 31
0.0
  0
LINE
  5
440
330
1E
100
AcDbEntity
  8
CSLAYER1
  6
DASHED
 62
     4
100
AcDbLine
 10
406.249824
 20
379.728324
 30
0.0
 11
406.249824
 21
373.428324
 31
0.0
  0
LINE
  5
441
330
1E
100
AcDbEntity
  8
CSLAYER1
  6
DASHED
 62
     4
100
AcDbLine
 10
406.249824
 20
373.428324
 30
0.0
 11
381.249824
 21
373.428324
 31
0.0
  0
LINE
  5
442
330
1E
100
AcDbEntity
  8
CSLAYER1
  6
CONTINUOUS
 62
     4
100
AcDbLine
 10
381.249824
 20
373.428324
 30
0.0
 11
380.249824
 21
373.428324
 31
0.0
  0
LINE
  5
443
330
1E
100
AcDbEntity
  8
CSLAYER1
  6
CENTER
 62
     4
100
AcDbLine
 10
384.249824
 20
377.5080899999998
 30
0.0
 11
384.249824
 21
386.2000379999998
 31
0.0
  0
LINE
  5
444
330
1E
100
AcDbEntity
  8
CSLAYER1
  6
CENTER
 62
     4
100
AcDbLine
 10
390.249824
 20
386.2000379999998
 30
0.0
 11
390.249824
 21
377.5080899999998
 31
0.0
  0
LINE
  5
445
330
1E
100
AcDbEntity
  8
CSLAYER1
  6
CENTER
 62
     4
100
AcDbLine
 10
373.249824
 20
376.578324
 30
0.0
 11
408.4854159999999
 21
376.578324
 31
0.0
  0
LINE
  5
446
330
1E
100
AcDbEntity
  8
CSLAYER1
  6
CONTINUOUS
 62
     4
100
AcDbLine
 10
415.749824
 20
393.5783239999998
 30
0.0
 11
415.249824
 21
394.078324
 31
0.0
  0
LINE
  5
447
330
1E
100
AcDbEntity
  8
CSLAYER1
  6
CONTINUOUS
 62
     4
100
AcDbLine
 10
415.249824
 20
394.078324
 30
0.0
 11
420.249824
 21
394.078324
 31
0.0
  0
LINE
  5
448
330
1E
100
AcDbEntity
  8
CSLAYER1
  6
CONTINUOUS
 62
     4
100
AcDbLine
 10
420.249824
 20
394.078324
 30
0.0
 11
419.749824
 21
393.5783239999998
 31
0.0
  0
LINE
  5
449
330
1E
100
AcDbEntity
  8
CSLAYER1
  6
CONTINUOUS
 62
     4
100
AcDbLine
 10
419.749824
 20
394.078324
 30
0.0
 11
419.749824
 21
402.5783239999998
 31
0.0
  0
LINE
  5
44A
330
1E
100
AcDbEntity
  8
CSLAYER1
  6
CONTINUOUS
 62
     4
100
AcDbLine
 10
421.3324
 20
400.578324
 30
0.0
 11
433.749824
 21
400.578324
 31
0.0
  0
LINE
  5
44B
330
1E
100
AcDbEntity
  8
CSLAYER1
  6
CENTER
 62
     4
100
AcDbLine
 10
436.629816
 20
410.578324
 30
0.0
 11
418.6762879999998
 21
410.578324
 31
0.0
  0
LINE
  5
44C
330
1E
100
AcDbEntity
  8
CSLAYER1
  6
DASHED
 62
     4
100
AcDbLine
 10
413.749824
 20
415.713438
 30
0.0
 11
412.749824
 21
415.713438
 31
0.0
  0
LINE
  5
44D
330
1E
100
AcDbEntity
  8
CSLAYER1
  6
DASHED
 62
     4
100
AcDbLine
 10
413.749824
 20
415.713438
 30
0.0
 11
413.749824
 21
403.8462739999998
 31
0.0
  0
LINE
  5
44E
330
1E
100
AcDbEntity
  8
CSLAYER1
  6
CONTINUOUS
 62
     4
100
AcDbLine
 10
415.749824
 20
403.5783239999998
 30
0.0
 11
415.749824
 21
394.078324
 31
0.0
  0
LINE
  5
44F
330
1E
100
AcDbEntity
  8
CSLAYER1
  6
CENTER
 62
     4
100
AcDbLine
 10
417.749824
 20
394.3951819999998
 30
0.0
 11
417.749824
 21
426.1484799999998
 31
0.0
  0
LINE
  5
450
330
1E
100
AcDbEntity
  8
CSLAYER1
  6
DASHED
 62
     4
100
AcDbLine
 10
412.749824
 20
420.578324
 30
0.0
 11
412.749824
 21
405.578324
 31
0.0
  0
LINE
  5
451
330
1E
100
AcDbEntity
  8
CSLAYER1
  6
DASHED
 62
     4
100
AcDbLine
 10
392.749824
 20
420.578324
 30
0.0
 11
392.749824
 21
405.578324
 31
0.0
  0
LINE
  5
452
330
1E
100
AcDbEntity
  8
CSLAYER1
  6
DASHED
 62
     4
100
AcDbLine
 10
392.749824
 20
415.713438
 30
0.0
 11
390.749824
 21
415.713438
 31
0.0
  0
LINE
  5
453
330
1E
100
AcDbEntity
  8
CSLAYER1
  6
CENTER
 62
     4
100
AcDbLine
 10
422.7707419999998
 20
358.8283239999998
 30
0.0
 11
434.937824
 21
358.8283239999998
 31
0.0
  0
LINE
  5
454
330
1E
100
AcDbEntity
  8
CSLAYER1
  6
CENTER
 62
     4
100
AcDbLine
 10
434.5606799999996
 20
360.578324
 30
0.0
 11
447.415604
 21
360.578324
 31
0.0
  0
LINE
  5
455
330
1E
100
AcDbEntity
  8
CSLAYER1
  6
CENTER
 62
     4
100
AcDbLine
 10
431.68419
 20
324.578324
 30
0.0
 11
415.913644
 21
324.578324
 31
0.0
  0
POINT
  5
456
330
1E
100
AcDbEntity
  8
CSLAYER1
 62
     3
100
AcDbPoint
 10
393.249824
 20
360.578324
 30
0.0
  0
POINT
  5
457
330
1E
100
AcDbEntity
  8
CSLAYER1
 62
     3
100
AcDbPoint
 10
405.749824
 20
405.578324
 30
0.0
  0
POINT
  5
458
330
1E
100
AcDbEntity
  8
CSLAYER1
 62
     3
100
AcDbPoint
 10
405.749824
 20
370.578324
 30
0.0
  0
INSERT
  5
459
330
1E
100
AcDbEntity
  8
CSLAYER1
100
AcDbBlockReference
  2
BLKF0007
 10
0.0
 20
0.0
 30
0.0
 41
2.0
 42
2.0
 43
2.0
  0
INSERT
  5
45A
330
1E
100
AcDbEntity
  8
CSLAYER1
100
AcDbBlockReference
  2
BLKF0008
 10
0.0
 20
0.0
 30
0.0
 41
2.0
 42
2.0
 43
2.0
  0
CIRCLE
  5
45B
330
1E
100
AcDbEntity
  8
CSLAYER1
  6
CONTINUOUS
 62
     3
100
AcDbCircle
 10
427.749824
 20
353.078324
 30
0.0
 40
2.0
  0
LINE
  5
45C
330
1E
100
AcDbEntity
  8
CSLAYER1
  6
CONTINUOUS
 62
     4
100
AcDbLine
 10
380.249824
 20
380.578324
 30
0.0
 11
380.249824
 21
372.578324
 31
0.0
  0
LINE
  5
45D
330
1E
100
AcDbEntity
  8
CSLAYER1
  6
CENTER
 62
     4
100
AcDbLine
 10
411.071262
 20
376.578324
 30
0.0
 11
420.249774
 21
376.578324
 31
0.0
  0
LINE
  5
45E
330
1E
100
AcDbEntity
  8
CSLAYER1
  6
CENTER
 62
     4
100
AcDbLine
 10
415.749824
 20
382.6035799999998
 30
0.0
 11
415.749824
 21
371.7783239999998
 31
0.0
  0
LINE
  5
45F
330
1E
100
AcDbEntity
  8
CSLAYER1
  6
CENTER
 62
     4
100
AcDbLine
 10
431.66549
 20
366.078324
 30
0.0
 11
446.337528
 21
366.078324
 31
0.0
  0
LINE
  5
460
330
1E
100
AcDbEntity
  8
CSLAYER1
  6
CENTER
 62
     4
100
AcDbLine
 10
431.66549
 20
340.0783239999995
 30
0.0
 11
446.337528
 21
340.0783239999995
 31
0.0
  0
LINE
  5
461
330
1E
100
AcDbEntity
  8
CSLAYER1
  6
CENTER
 62
     4
100
AcDbLine
 10
402.0866559999998
 20
366.078324
 30
0.0
 11
384.575198
 21
366.078324
 31
0.0
  0
LINE
  5
462
330
1E
100
AcDbEntity
  8
CSLAYER1
  6
CENTER
 62
     4
100
AcDbLine
 10
402.0866559999998
 20
340.0783239999995
 30
0.0
 11
384.575198
 21
340.0783239999995
 31
0.0
  0
INSERT
  5
463
330
1E
100
AcDbEntity
  8
CSLAYER1
100
AcDbBlockReference
  2
BLKF0009
 10
0.0
 20
0.0
 30
0.0
 41
2.0
 42
2.0
 43
2.0
  0
LINE
  5
464
330
1E
100
AcDbEntity
  8
CSLAYER1
  6
CONTINUOUS
 62
     4
100
AcDbLine
 10
380.249824
 20
372.578324
 30
0.0
 11
377.249824
 21
372.578324
 31
0.0
  0
LINE
  5
465
330
1E
100
AcDbEntity
  8
CSLAYER1
  6
CONTINUOUS
 62
     4
100
AcDbLine
 10
380.249824
 20
380.578324
 30
0.0
 11
369.249824
 21
380.578324
 31
0.0
  0
LINE
  5
466
330
1E
100
AcDbEntity
  8
CSLAYER1
  6
CONTINUOUS
 62
     4
100
AcDbLine
 10
369.249824
 20
380.578324
 30
0.0
 11
369.249824
 21
355.578324
 31
0.0
  0
LINE
  5
467
330
1E
100
AcDbEntity
  8
CSLAYER1
  6
CONTINUOUS
 62
     4
100
AcDbLine
 10
377.249824
 20
355.578324
 30
0.0
 11
377.249824
 21
372.578324
 31
0.0
  0
LINE
  5
468
330
1E
100
AcDbEntity
  8
CSLAYER1
  6
CONTINUOUS
 62
     4
100
AcDbLine
 10
377.249824
 20
355.578324
 30
0.0
 11
369.249822
 21
355.578324
 31
0.0
  0
LINE
  5
469
330
1E
100
AcDbEntity
  8
CSLAYER1
  6
CONTINUOUS
 62
     4
100
AcDbLine
 10
377.249824
 20
372.578324
 30
0.0
 11
369.249824
 21
380.578324
 31
0.0
  0
LINE
  5
46A
330
1E
100
AcDbEntity
  8
CSLAYER1
  6
CONTINUOUS
 62
     4
100
AcDbLine
 10
372.249824
 20
355.578324
 30
0.0
 11
372.249826
 21
329.930216
 31
0.0
  0
LINE
  5
46B
330
1E
100
AcDbEntity
  8
CSLAYER1
  6
CONTINUOUS
 62
     4
100
AcDbLine
 10
370.249824
 20
355.578324
 30
0.0
 11
370.249826
 21
329.374212
 31
0.0
  0
LINE
  5
46C
330
1E
100
AcDbEntity
  8
CSLAYER1
  6
CONTINUOUS
 62
     4
100
AcDbLine
 10
374.249824
 20
355.578324
 30
0.0
 11
374.2498259999998
 21
331.9534659999999
 31
0.0
  0
LINE
  5
46D
330
1E
100
AcDbEntity
  8
CSLAYER1
  6
CONTINUOUS
 62
     4
100
AcDbLine
 10
376.249824
 20
355.578324
 30
0.0
 11
376.249826
 21
331.9534659999999
 31
0.0
  0
LINE
  5
46E
330
1E
100
AcDbEntity
  8
CSLAYER1
  6
DASHED
 62
     4
100
AcDbLine
 10
408.738834
 20
379.078324
 30
0.0
 11
408.738834
 21
374.078324
 31
0.0
  0
LINE
  5
46F
330
1E
100
AcDbEntity
  8
CSLAYER1
  6
DASHED
 62
     4
100
AcDbLine
 10
397.3771779999998
 20
374.078324
 30
0.0
 11
408.738834
 21
374.078324
 31
0.0
  0
LINE
  5
470
330
1E
100
AcDbEntity
  8
CSLAYER1
  6
DASHED
 62
     4
100
AcDbLine
 10
395.749824
 20
379.078322
 30
0.0
 11
408.738834
 21
379.078324
 31
0.0
  0
CIRCLE
  5
471
330
1E
100
AcDbEntity
  8
CSLAYER1
  6
DASHED
 62
     4
100
AcDbCircle
 10
415.749824
 20
376.578324
 30
0.0
 40
2.980383999999998
  0
ARC
  5
472
330
1E
100
AcDbEntity
  8
CSLAYER1
  6
DASHED
 62
     4
100
AcDbCircle
 10
415.749824
 20
376.578324
 30
0.0
 40
4.0
100
AcDbArc
 50
232.6295879999999
 51
127.370417
  0
ARC
  5
473
330
1E
100
AcDbEntity
  8
CSLAYER1
  6
DASHED
 62
     4
100
AcDbCircle
 10
409.0732019999999
 20
385.320334
 30
0.0
 40
7.0
100
AcDbArc
 50
267.262122
 51
307.3704169999998
  0
ARC
  5
474
330
1E
100
AcDbEntity
  8
CSLAYER1
  6
DASHED
 62
     4
100
AcDbCircle
 10
409.0732019999999
 20
367.836314
 30
0.0
 40
7.0
100
AcDbArc
 50
52.62958799999999
 51
92.737884
  0
CIRCLE
  5
475
330
1E
100
AcDbEntity
  8
CSLAYER1
  6
DASHED
 62
     4
100
AcDbCircle
 10
415.749824
 20
376.578324
 30
0.0
 40
3.5
  0
ARC
  5
476
330
1E
100
AcDbEntity
  8
CSLAYER1
  6
DASHED
 62
     4
100
AcDbCircle
 10
395.749824
 20
354.078322
 30
0.0
 40
25.0
100
AcDbArc
 50
90.00000300000001
 51
122.5877659999998
  0
ARC
  5
477
330
1E
100
AcDbEntity
  8
CSLAYER1
  6
DASHED
 62
     4
100
AcDbCircle
 10
395.749824
 20
354.078322
 30
0.0
 40
20.0
100
AcDbArc
 50
85.33281499999999
 51
112.3316379999999
  0
LINE
  5
478
330
1E
100
AcDbEntity
  8
CSLAYER1
  6
CENTER
 62
     4
100
AcDbLine
 10
373.249824
 20
376.578324
 30
0.0
 11
373.2498259999998
 21
325.190876
 31
0.0
  0
CIRCLE
  5
479
330
1E
100
AcDbEntity
  8
CSLAYER1
  6
CONTINUOUS
 62
     3
100
AcDbCircle
 10
415.749824
 20
376.578324
 30
0.0
 40
1.649999999999999
  0
CIRCLE
  5
47A
330
1E
100
AcDbEntity
  8
CSLAYER1
  6
CONTINUOUS
 62
     4
100
AcDbCircle
 10
415.749824
 20
376.578324
 30
0.0
 40
2.0
  0
ARC
  5
47B
330
1E
100
AcDbEntity
  8
CSLAYER1
  6
CONTINUOUS
 62
     4
100
AcDbCircle
 10
395.749824
 20
354.078322
 30
0.0
 40
20.0
100
AcDbArc
 50
112.3316379999999
 51
118.799114
  0
LINE
  5
47C
330
1E
100
AcDbEntity
  8
CSLAYER1
  6
CONTINUOUS
 62
     3
100
AcDbLine
 10
421.249824
 20
370.578324
 30
0.0
 11
421.249824
 21
371.7783239999998
 31
0.0
  0
LINE
  5
47D
330
1E
100
AcDbEntity
  8
CSLAYER1
  6
CONTINUOUS
 62
     3
100
AcDbLine
 10
411.749824
 20
370.578324
 30
0.0
 11
411.749824
 21
371.7783239999998
 31
0.0
  0
LINE
  5
47E
330
1E
100
AcDbEntity
  8
CSLAYER1
  6
CONTINUOUS
 62
     3
100
AcDbLine
 10
399.749824
 20
370.578324
 30
0.0
 11
399.749824
 21
371.7783239999998
 31
0.0
  0
LINE
  5
47F
330
1E
100
AcDbEntity
  8
CSLAYER1
  6
CONTINUOUS
 62
     3
100
AcDbLine
 10
387.049824
 20
336.578324
 30
0.0
 11
387.049824
 21
343.578324
 31
0.0
  0
LINE
  5
480
330
1E
100
AcDbEntity
  8
CSLAYER1
  6
CONTINUOUS
 62
     3
100
AcDbLine
 10
390.249824
 20
336.036872
 30
0.0
 11
387.3624299999998
 21
336.036872
 31
0.0
  0
LINE
  5
481
330
1E
100
AcDbEntity
  8
CSLAYER1
  6
CONTINUOUS
 62
     3
100
AcDbLine
 10
387.3624299999998
 20
336.036872
 30
0.0
 11
387.049824
 21
336.578324
 31
0.0
  0
LINE
  5
482
330
1E
100
AcDbEntity
  8
CSLAYER1
  6
CONTINUOUS
 62
     3
100
AcDbLine
 10
390.249824
 20
344.119776
 30
0.0
 11
387.3624299999998
 21
344.119776
 31
0.0
  0
LINE
  5
483
330
1E
100
AcDbEntity
  8
CSLAYER1
  6
CONTINUOUS
 62
     3
100
AcDbLine
 10
387.3624299999998
 20
344.119776
 30
0.0
 11
387.049824
 21
343.578324
 31
0.0
  0
LINE
  5
484
330
1E
100
AcDbEntity
  8
CSLAYER1
  6
CONTINUOUS
 62
     3
100
AcDbLine
 10
390.249824
 20
338.0575979999998
 30
0.0
 11
387.3624299999998
 21
338.0575979999998
 31
0.0
  0
LINE
  5
485
330
1E
100
AcDbEntity
  8
CSLAYER1
  6
CONTINUOUS
 62
     3
100
AcDbLine
 10
390.249824
 20
342.0990499999998
 30
0.0
 11
387.3624299999998
 21
342.0990499999998
 31
0.0
  0
ARC
  5
486
330
1E
100
AcDbEntity
  8
CSLAYER1
  6
CONTINUOUS
 62
     3
100
AcDbCircle
 10
393.7372159999998
 20
340.0783239999995
 30
0.0
 40
6.687392
100
AcDbArc
 50
162.412046
 51
197.5879539999999
  0
ARC
  5
487
330
1E
100
AcDbEntity
  8
CSLAYER1
  6
CONTINUOUS
 62
     3
100
AcDbCircle
 10
391.0446199999998
 20
343.6615759999998
 30
0.0
 40
4.0
100
AcDbArc
 50
182.9230149999999
 51
202.9938029999999
  0
ARC
  5
488
330
1E
100
AcDbEntity
  8
CSLAYER1
  6
CONTINUOUS
 62
     3
100
AcDbCircle
 10
391.0446199999998
 20
336.4950719999998
 30
0.0
 40
4.0
100
AcDbArc
 50
157.0061969999999
 51
177.076985
  0
LINE
  5
489
330
1E
100
AcDbEntity
  8
CSLAYER1
  6
CONTINUOUS
 62
     3
100
AcDbLine
 10
387.049824
 20
362.578324
 30
0.0
 11
387.049824
 21
369.578324
 31
0.0
  0
LINE
  5
48A
330
1E
100
AcDbEntity
  8
CSLAYER1
  6
CONTINUOUS
 62
     3
100
AcDbLine
 10
390.249824
 20
362.036872
 30
0.0
 11
387.3624299999998
 21
362.036872
 31
0.0
  0
LINE
  5
48B
330
1E
100
AcDbEntity
  8
CSLAYER1
  6
CONTINUOUS
 62
     3
100
AcDbLine
 10
387.3624299999998
 20
362.036872
 30
0.0
 11
387.049824
 21
362.578324
 31
0.0
  0
LINE
  5
48C
330
1E
100
AcDbEntity
  8
CSLAYER1
  6
CONTINUOUS
 62
     3
100
AcDbLine
 10
390.249824
 20
370.1197759999998
 30
0.0
 11
387.3624299999998
 21
370.1197759999998
 31
0.0
  0
LINE
  5
48D
330
1E
100
AcDbEntity
  8
CSLAYER1
  6
CONTINUOUS
 62
     3
100
AcDbLine
 10
387.3624299999998
 20
370.1197759999998
 30
0.0
 11
387.049824
 21
369.578324
 31
0.0
  0
ARC
  5
48E
330
1E
100
AcDbEntity
  8
CSLAYER1
  6
CONTINUOUS
 62
     3
100
AcDbCircle
 10
391.0446199999998
 20
369.6615759999998
 30
0.0
 40
4.0
100
AcDbArc
 50
182.9230149999999
 51
202.9938029999999
  0
ARC
  5
48F
330
1E
100
AcDbEntity
  8
CSLAYER1
  6
CONTINUOUS
 62
     3
100
AcDbCircle
 10
391.0446199999998
 20
362.495072
 30
0.0
 40
4.0
100
AcDbArc
 50
157.0061969999999
 51
177.076985
  0
POLYLINE
  5
490
330
1E
100
AcDbEntity
  8
CSLAYER1
  6
CONTINUOUS
 62
     4
100
AcDb2dPolyline
 66
     1
 10
0.0
 20
0.0
 30
0.0
  0
VERTEX
  5
491
330
490
100
AcDbEntity
  8
CSLAYER1
  6
CONTINUOUS
 62
     4
100
AcDbVertex
100
AcDb2dVertex
 10
376.249826
 20
331.9534659999999
 30
0.0
  0
VERTEX
  5
492
330
490
100
AcDbEntity
  8
CSLAYER1
  6
CONTINUOUS
 62
     4
100
AcDbVertex
100
AcDb2dVertex
 10
376.1930279999998
 20
331.976264
 30
0.0
  0
VERTEX
  5
493
330
490
100
AcDbEntity
  8
CSLAYER1
  6
CONTINUOUS
 62
     4
100
AcDbVertex
100
AcDb2dVertex
 10
376.1362279999998
 20
331.999064
 30
0.0
  0
VERTEX
  5
494
330
490
100
AcDbEntity
  8
CSLAYER1
  6
CONTINUOUS
 62
     4
100
AcDbVertex
100
AcDb2dVertex
 10
376.07943
 20
332.0218619999998
 30
0.0
  0
VERTEX
  5
495
330
490
100
AcDbEntity
  8
CSLAYER1
  6
CONTINUOUS
 62
     4
100
AcDbVertex
100
AcDb2dVertex
 10
376.022632
 20
332.044662
 30
0.0
  0
VERTEX
  5
496
330
490
100
AcDbEntity
  8
CSLAYER1
  6
CONTINUOUS
 62
     4
100
AcDbVertex
100
AcDb2dVertex
 10
375.9658339999998
 20
332.0674599999998
 30
0.0
  0
VERTEX
  5
497
330
490
100
AcDbEntity
  8
CSLAYER1
  6
CONTINUOUS
 62
     4
100
AcDbVertex
100
AcDb2dVertex
 10
375.909036
 20
332.09026
 30
0.0
  0
VERTEX
  5
498
330
490
100
AcDbEntity
  8
CSLAYER1
  6
CONTINUOUS
 62
     4
100
AcDbVertex
100
AcDb2dVertex
 10
375.852238
 20
332.113058
 30
0.0
  0
VERTEX
  5
499
330
490
100
AcDbEntity
  8
CSLAYER1
  6
CONTINUOUS
 62
     4
100
AcDbVertex
100
AcDb2dVertex
 10
375.7954399999998
 20
332.135858
 30
0.0
  0
VERTEX
  5
49A
330
490
100
AcDbEntity
  8
CSLAYER1
  6
CONTINUOUS
 62
     4
100
AcDbVertex
100
AcDb2dVertex
 10
375.7386419999998
 20
332.158656
 30
0.0
  0
VERTEX
  5
49B
330
490
100
AcDbEntity
  8
CSLAYER1
  6
CONTINUOUS
 62
     4
100
AcDbVertex
100
AcDb2dVertex
 10
375.681842
 20
332.181456
 30
0.0
  0
VERTEX
  5
49C
330
490
100
AcDbEntity
  8
CSLAYER1
  6
CONTINUOUS
 62
     4
100
AcDbVertex
100
AcDb2dVertex
 10
375.625044
 20
332.2042539999998
 30
0.0
  0
VERTEX
  5
49D
330
490
100
AcDbEntity
  8
CSLAYER1
  6
CONTINUOUS
 62
     4
100
AcDbVertex
100
AcDb2dVertex
 10
375.5682459999998
 20
332.227054
 30
0.0
  0
VERTEX
  5
49E
330
490
100
AcDbEntity
  8
CSLAYER1
  6
CONTINUOUS
 62
     4
100
AcDbVertex
100
AcDb2dVertex
 10
375.511484
 20
332.249652
 30
0.0
  0
VERTEX
  5
49F
330
490
100
AcDbEntity
  8
CSLAYER1
  6
CONTINUOUS
 62
     4
100
AcDbVertex
100
AcDb2dVertex
 10
375.4552339999998
 20
332.269452
 30
0.0
  0
VERTEX
  5
4A0
330
490
100
AcDbEntity
  8
CSLAYER1
  6
CONTINUOUS
 62
     4
100
AcDbVertex
100
AcDb2dVertex
 10
375.399642
 20
332.285652
 30
0.0
  0
VERTEX
  5
4A1
330
490
100
AcDbEntity
  8
CSLAYER1
  6
CONTINUOUS
 62
     4
100
AcDbVertex
100
AcDb2dVertex
 10
375.344708
 20
332.29825
 30
0.0
  0
VERTEX
  5
4A2
330
490
100
AcDbEntity
  8
CSLAYER1
  6
CONTINUOUS
 62
     4
100
AcDbVertex
100
AcDb2dVertex
 10
375.290432
 20
332.30725
 30
0.0
  0
VERTEX
  5
4A3
330
490
100
AcDbEntity
  8
CSLAYER1
  6
CONTINUOUS
 62
     4
100
AcDbVertex
100
AcDb2dVertex
 10
375.236814
 20
332.31265
 30
0.0
  0
VERTEX
  5
4A4
330
490
100
AcDbEntity
  8
CSLAYER1
  6
CONTINUOUS
 62
     4
100
AcDbVertex
100
AcDb2dVertex
 10
375.183852
 20
332.31445
 30
0.0
  0
VERTEX
  5
4A5
330
490
100
AcDbEntity
  8
CSLAYER1
  6
CONTINUOUS
 62
     4
100
AcDbVertex
100
AcDb2dVertex
 10
375.13155
 20
332.31265
 30
0.0
  0
VERTEX
  5
4A6
330
490
100
AcDbEntity
  8
CSLAYER1
  6
CONTINUOUS
 62
     4
100
AcDbVertex
100
AcDb2dVertex
 10
375.0799059999998
 20
332.30725
 30
0.0
  0
VERTEX
  5
4A7
330
490
100
AcDbEntity
  8
CSLAYER1
  6
CONTINUOUS
 62
     4
100
AcDbVertex
100
AcDb2dVertex
 10
375.028918
 20
332.29825
 30
0.0
  0
VERTEX
  5
4A8
330
490
100
AcDbEntity
  8
CSLAYER1
  6
CONTINUOUS
 62
     4
100
AcDbVertex
100
AcDb2dVertex
 10
374.9785899999998
 20
332.285652
 30
0.0
  0
VERTEX
  5
4A9
330
490
100
AcDbEntity
  8
CSLAYER1
  6
CONTINUOUS
 62
     4
100
AcDbVertex
100
AcDb2dVertex
 10
374.928918
 20
332.269452
 30
0.0
  0
VERTEX
  5
4AA
330
490
100
AcDbEntity
  8
CSLAYER1
  6
CONTINUOUS
 62
     4
100
AcDbVertex
100
AcDb2dVertex
 10
374.8799059999998
 20
332.249652
 30
0.0
  0
VERTEX
  5
4AB
330
490
100
AcDbEntity
  8
CSLAYER1
  6
CONTINUOUS
 62
     4
100
AcDbVertex
100
AcDb2dVertex
 10
374.831404
 20
332.227054
 30
0.0
  0
VERTEX
  5
4AC
330
490
100
AcDbEntity
  8
CSLAYER1
  6
CONTINUOUS
 62
     4
100
AcDbVertex
100
AcDb2dVertex
 10
374.78294
 20
332.2042539999998
 30
0.0
  0
VERTEX
  5
4AD
330
490
100
AcDbEntity
  8
CSLAYER1
  6
CONTINUOUS
 62
     4
100
AcDbVertex
100
AcDb2dVertex
 10
374.734474
 20
332.181456
 30
0.0
  0
VERTEX
  5
4AE
330
490
100
AcDbEntity
  8
CSLAYER1
  6
CONTINUOUS
 62
     4
100
AcDbVertex
100
AcDb2dVertex
 10
374.6860099999998
 20
332.158656
 30
0.0
  0
VERTEX
  5
4AF
330
490
100
AcDbEntity
  8
CSLAYER1
  6
CONTINUOUS
 62
     4
100
AcDbVertex
100
AcDb2dVertex
 10
374.6375439999998
 20
332.135858
 30
0.0
  0
VERTEX
  5
4B0
330
490
100
AcDbEntity
  8
CSLAYER1
  6
CONTINUOUS
 62
     4
100
AcDbVertex
100
AcDb2dVertex
 10
374.5890799999998
 20
332.113058
 30
0.0
  0
VERTEX
  5
4B1
330
490
100
AcDbEntity
  8
CSLAYER1
  6
CONTINUOUS
 62
     4
100
AcDbVertex
100
AcDb2dVertex
 10
374.540614
 20
332.09026
 30
0.0
  0
VERTEX
  5
4B2
330
490
100
AcDbEntity
  8
CSLAYER1
  6
CONTINUOUS
 62
     4
100
AcDbVertex
100
AcDb2dVertex
 10
374.4921499999998
 20
332.0674599999998
 30
0.0
  0
VERTEX
  5
4B3
330
490
100
AcDbEntity
  8
CSLAYER1
  6
CONTINUOUS
 62
     4
100
AcDbVertex
100
AcDb2dVertex
 10
374.4436839999998
 20
332.044662
 30
0.0
  0
VERTEX
  5
4B4
330
490
100
AcDbEntity
  8
CSLAYER1
  6
CONTINUOUS
 62
     4
100
AcDbVertex
100
AcDb2dVertex
 10
374.3952199999998
 20
332.0218619999998
 30
0.0
  0
VERTEX
  5
4B5
330
490
100
AcDbEntity
  8
CSLAYER1
  6
CONTINUOUS
 62
     4
100
AcDbVertex
100
AcDb2dVertex
 10
374.346756
 20
331.999064
 30
0.0
  0
VERTEX
  5
4B6
330
490
100
AcDbEntity
  8
CSLAYER1
  6
CONTINUOUS
 62
     4
100
AcDbVertex
100
AcDb2dVertex
 10
374.29829
 20
331.976264
 30
0.0
  0
VERTEX
  5
4B7
330
490
100
AcDbEntity
  8
CSLAYER1
  6
CONTINUOUS
 62
     4
100
AcDbVertex
100
AcDb2dVertex
 10
374.2498259999998
 20
331.9534659999999
 30
0.0
  0
SEQEND
  5
4B8
330
490
100
AcDbEntity
  8
CSLAYER1
 62
     4
  0
POLYLINE
  5
4B9
330
1E
100
AcDbEntity
  8
CSLAYER1
  6
CONTINUOUS
 62
     4
100
AcDb2dPolyline
 66
     1
 10
0.0
 20
0.0
 30
0.0
  0
VERTEX
  5
4BA
330
4B9
100
AcDbEntity
  8
CSLAYER1
  6
CONTINUOUS
 62
     4
100
AcDbVertex
100
AcDb2dVertex
 10
372.249826
 20
329.930216
 30
0.0
  0
VERTEX
  5
4BB
330
4B9
100
AcDbEntity
  8
CSLAYER1
  6
CONTINUOUS
 62
     4
100
AcDbVertex
100
AcDb2dVertex
 10
372.207374
 20
329.89535
 30
0.0
  0
VERTEX
  5
4BC
330
4B9
100
AcDbEntity
  8
CSLAYER1
  6
CONTINUOUS
 62
     4
100
AcDbVertex
100
AcDb2dVertex
 10
372.1649199999998
 20
329.8604839999998
 30
0.0
  0
VERTEX
  5
4BD
330
4B9
100
AcDbEntity
  8
CSLAYER1
  6
CONTINUOUS
 62
     4
100
AcDbVertex
100
AcDb2dVertex
 10
372.122468
 20
329.825618
 30
0.0
  0
VERTEX
  5
4BE
330
4B9
100
AcDbEntity
  8
CSLAYER1
  6
CONTINUOUS
 62
     4
100
AcDbVertex
100
AcDb2dVertex
 10
372.0800159999998
 20
329.7907519999998
 30
0.0
  0
VERTEX
  5
4BF
330
4B9
100
AcDbEntity
  8
CSLAYER1
  6
CONTINUOUS
 62
     4
100
AcDbVertex
100
AcDb2dVertex
 10
372.037564
 20
329.7558859999998
 30
0.0
  0
VERTEX
  5
4C0
330
4B9
100
AcDbEntity
  8
CSLAYER1
  6
CONTINUOUS
 62
     4
100
AcDbVertex
100
AcDb2dVertex
 10
371.995112
 20
329.72102
 30
0.0
  0
VERTEX
  5
4C1
330
4B9
100
AcDbEntity
  8
CSLAYER1
  6
CONTINUOUS
 62
     4
100
AcDbVertex
100
AcDb2dVertex
 10
371.95266
 20
329.686154
 30
0.0
  0
VERTEX
  5
4C2
330
4B9
100
AcDbEntity
  8
CSLAYER1
  6
CONTINUOUS
 62
     4
100
AcDbVertex
100
AcDb2dVertex
 10
371.910206
 20
329.6512879999998
 30
0.0
  0
VERTEX
  5
4C3
330
4B9
100
AcDbEntity
  8
CSLAYER1
  6
CONTINUOUS
 62
     4
100
AcDbVertex
100
AcDb2dVertex
 10
371.8677539999998
 20
329.616422
 30
0.0
  0
VERTEX
  5
4C4
330
4B9
100
AcDbEntity
  8
CSLAYER1
  6
CONTINUOUS
 62
     4
100
AcDbVertex
100
AcDb2dVertex
 10
371.825302
 20
329.5815559999998
 30
0.0
  0
VERTEX
  5
4C5
330
4B9
100
AcDbEntity
  8
CSLAYER1
  6
CONTINUOUS
 62
     4
100
AcDbVertex
100
AcDb2dVertex
 10
371.7828499999998
 20
329.54669
 30
0.0
  0
VERTEX
  5
4C6
330
4B9
100
AcDbEntity
  8
CSLAYER1
  6
CONTINUOUS
 62
     4
100
AcDbVertex
100
AcDb2dVertex
 10
371.7403979999998
 20
329.511824
 30
0.0
  0
VERTEX
  5
4C7
330
4B9
100
AcDbEntity
  8
CSLAYER1
  6
CONTINUOUS
 62
     4
100
AcDbVertex
100
AcDb2dVertex
 10
371.697856
 20
329.4771359999999
 30
0.0
  0
VERTEX
  5
4C8
330
4B9
100
AcDbEntity
  8
CSLAYER1
  6
CONTINUOUS
 62
     4
100
AcDbVertex
100
AcDb2dVertex
 10
371.654064
 20
329.444932
 30
0.0
  0
VERTEX
  5
4C9
330
4B9
100
AcDbEntity
  8
CSLAYER1
  6
CONTINUOUS
 62
     4
100
AcDbVertex
100
AcDb2dVertex
 10
371.608666
 20
329.415924
 30
0.0
  0
VERTEX
  5
4CA
330
4B9
100
AcDbEntity
  8
CSLAYER1
  6
CONTINUOUS
 62
     4
100
AcDbVertex
100
AcDb2dVertex
 10
371.56166
 20
329.3901099999998
 30
0.0
  0
VERTEX
  5
4CB
330
4B9
100
AcDbEntity
  8
CSLAYER1
  6
CONTINUOUS
 62
     4
100
AcDbVertex
100
AcDb2dVertex
 10
371.5130459999998
 20
329.3674899999998
 30
0.0
  0
VERTEX
  5
4CC
330
4B9
100
AcDbEntity
  8
CSLAYER1
  6
CONTINUOUS
 62
     4
100
AcDbVertex
100
AcDb2dVertex
 10
371.462824
 20
329.348066
 30
0.0
  0
VERTEX
  5
4CD
330
4B9
100
AcDbEntity
  8
CSLAYER1
  6
CONTINUOUS
 62
     4
100
AcDbVertex
100
AcDb2dVertex
 10
371.410996
 20
329.331838
 30
0.0
  0
VERTEX
  5
4CE
330
4B9
100
AcDbEntity
  8
CSLAYER1
  6
CONTINUOUS
 62
     4
100
AcDbVertex
100
AcDb2dVertex
 10
371.357562
 20
329.318802
 30
0.0
  0
VERTEX
  5
4CF
330
4B9
100
AcDbEntity
  8
CSLAYER1
  6
CONTINUOUS
 62
     4
100
AcDbVertex
100
AcDb2dVertex
 10
371.30252
 20
329.308964
 30
0.0
  0
VERTEX
  5
4D0
330
4B9
100
AcDbEntity
  8
CSLAYER1
  6
CONTINUOUS
 62
     4
100
AcDbVertex
100
AcDb2dVertex
 10
371.24587
 20
329.302318
 30
0.0
  0
VERTEX
  5
4D1
330
4B9
100
AcDbEntity
  8
CSLAYER1
  6
CONTINUOUS
 62
     4
100
AcDbVertex
100
AcDb2dVertex
 10
371.1876119999998
 20
329.29887
 30
0.0
  0
VERTEX
  5
4D2
330
4B9
100
AcDbEntity
  8
CSLAYER1
  6
CONTINUOUS
 62
     4
100
AcDbVertex
100
AcDb2dVertex
 10
371.127748
 20
329.298614
 30
0.0
  0
VERTEX
  5
4D3
330
4B9
100
AcDbEntity
  8
CSLAYER1
  6
CONTINUOUS
 62
     4
100
AcDbVertex
100
AcDb2dVertex
 10
371.0662779999998
 20
329.301554
 30
0.0
  0
VERTEX
  5
4D4
330
4B9
100
AcDbEntity
  8
CSLAYER1
  6
CONTINUOUS
 62
     4
100
AcDbVertex
100
AcDb2dVertex
 10
371.003556
 20
329.3069799999996
 30
0.0
  0
VERTEX
  5
4D5
330
4B9
100
AcDbEntity
  8
CSLAYER1
  6
CONTINUOUS
 62
     4
100
AcDbVertex
100
AcDb2dVertex
 10
370.940744
 20
329.3125819999997
 30
0.0
  0
VERTEX
  5
4D6
330
4B9
100
AcDbEntity
  8
CSLAYER1
  6
CONTINUOUS
 62
     4
100
AcDbVertex
100
AcDb2dVertex
 10
370.8779339999998
 20
329.3181859999998
 30
0.0
  0
VERTEX
  5
4D7
330
4B9
100
AcDbEntity
  8
CSLAYER1
  6
CONTINUOUS
 62
     4
100
AcDbVertex
100
AcDb2dVertex
 10
370.815122
 20
329.3237879999998
 30
0.0
  0
VERTEX
  5
4D8
330
4B9
100
AcDbEntity
  8
CSLAYER1
  6
CONTINUOUS
 62
     4
100
AcDbVertex
100
AcDb2dVertex
 10
370.752312
 20
329.32939
 30
0.0
  0
VERTEX
  5
4D9
330
4B9
100
AcDbEntity
  8
CSLAYER1
  6
CONTINUOUS
 62
     4
100
AcDbVertex
100
AcDb2dVertex
 10
370.689502
 20
329.334994
 30
0.0
  0
VERTEX
  5
4DA
330
4B9
100
AcDbEntity
  8
CSLAYER1
  6
CONTINUOUS
 62
     4
100
AcDbVertex
100
AcDb2dVertex
 10
370.6266899999998
 20
329.340596
 30
0.0
  0
VERTEX
  5
4DB
330
4B9
100
AcDbEntity
  8
CSLAYER1
  6
CONTINUOUS
 62
     4
100
AcDbVertex
100
AcDb2dVertex
 10
370.5638799999998
 20
329.346198
 30
0.0
  0
VERTEX
  5
4DC
330
4B9
100
AcDbEntity
  8
CSLAYER1
  6
CONTINUOUS
 62
     4
100
AcDbVertex
100
AcDb2dVertex
 10
370.501068
 20
329.351802
 30
0.0
  0
VERTEX
  5
4DD
330
4B9
100
AcDbEntity
  8
CSLAYER1
  6
CONTINUOUS
 62
     4
100
AcDbVertex
100
AcDb2dVertex
 10
370.438258
 20
329.357404
 30
0.0
  0
VERTEX
  5
4DE
330
4B9
100
AcDbEntity
  8
CSLAYER1
  6
CONTINUOUS
 62
     4
100
AcDbVertex
100
AcDb2dVertex
 10
370.375448
 20
329.3630059999998
 30
0.0
  0
VERTEX
  5
4DF
330
4B9
100
AcDbEntity
  8
CSLAYER1
  6
CONTINUOUS
 62
     4
100
AcDbVertex
100
AcDb2dVertex
 10
370.312636
 20
329.368608
 30
0.0
  0
VERTEX
  5
4E0
330
4B9
100
AcDbEntity
  8
CSLAYER1
  6
CONTINUOUS
 62
     4
100
AcDbVertex
100
AcDb2dVertex
 10
370.249826
 20
329.374212
 30
0.0
  0
SEQEND
  5
4E1
330
4B9
100
AcDbEntity
  8
CSLAYER1
 62
     4
  0
POLYLINE
  5
4E2
330
1E
100
AcDbEntity
  8
CSLAYER1
  6
DASHED
 62
     4
100
AcDb2dPolyline
 66
     1
 10
0.0
 20
0.0
 30
0.0
  0
VERTEX
  5
4E3
330
4E2
100
AcDbEntity
  8
CSLAYER1
  6
DASHED
 62
     4
100
AcDbVertex
100
AcDb2dVertex
 10
382.285052
 20
375.142508
 30
0.0
  0
VERTEX
  5
4E4
330
4E2
100
AcDbEntity
  8
CSLAYER1
  6
DASHED
 62
     4
100
AcDbVertex
100
AcDb2dVertex
 10
382.2988159999998
 20
375.08747
 30
0.0
  0
VERTEX
  5
4E5
330
4E2
100
AcDbEntity
  8
CSLAYER1
  6
DASHED
 62
     4
100
AcDbVertex
100
AcDb2dVertex
 10
382.3125799999998
 20
375.0324319999999
 30
0.0
  0
VERTEX
  5
4E6
330
4E2
100
AcDbEntity
  8
CSLAYER1
  6
DASHED
 62
     4
100
AcDbVertex
100
AcDb2dVertex
 10
382.326346
 20
374.977396
 30
0.0
  0
VERTEX
  5
4E7
330
4E2
100
AcDbEntity
  8
CSLAYER1
  6
DASHED
 62
     4
100
AcDbVertex
100
AcDb2dVertex
 10
382.3401099999998
 20
374.922358
 30
0.0
  0
VERTEX
  5
4E8
330
4E2
100
AcDbEntity
  8
CSLAYER1
  6
DASHED
 62
     4
100
AcDbVertex
100
AcDb2dVertex
 10
382.353874
 20
374.86732
 30
0.0
  0
VERTEX
  5
4E9
330
4E2
100
AcDbEntity
  8
CSLAYER1
  6
DASHED
 62
     4
100
AcDbVertex
100
AcDb2dVertex
 10
382.367638
 20
374.8122819999998
 30
0.0
  0
VERTEX
  5
4EA
330
4E2
100
AcDbEntity
  8
CSLAYER1
  6
DASHED
 62
     4
100
AcDbVertex
100
AcDb2dVertex
 10
382.381402
 20
374.757244
 30
0.0
  0
VERTEX
  5
4EB
330
4E2
100
AcDbEntity
  8
CSLAYER1
  6
DASHED
 62
     4
100
AcDbVertex
100
AcDb2dVertex
 10
382.395166
 20
374.7022059999998
 30
0.0
  0
VERTEX
  5
4EC
330
4E2
100
AcDbEntity
  8
CSLAYER1
  6
DASHED
 62
     4
100
AcDbVertex
100
AcDb2dVertex
 10
382.40893
 20
374.647168
 30
0.0
  0
VERTEX
  5
4ED
330
4E2
100
AcDbEntity
  8
CSLAYER1
  6
DASHED
 62
     4
100
AcDbVertex
100
AcDb2dVertex
 10
382.4226939999998
 20
374.5921299999998
 30
0.0
  0
VERTEX
  5
4EE
330
4E2
100
AcDbEntity
  8
CSLAYER1
  6
DASHED
 62
     4
100
AcDbVertex
100
AcDb2dVertex
 10
382.4364599999998
 20
374.5370919999998
 30
0.0
  0
VERTEX
  5
4EF
330
4E2
100
AcDbEntity
  8
CSLAYER1
  6
DASHED
 62
     4
100
AcDbVertex
100
AcDb2dVertex
 10
382.450224
 20
374.4820559999999
 30
0.0
  0
VERTEX
  5
4F0
330
4E2
100
AcDbEntity
  8
CSLAYER1
  6
DASHED
 62
     4
100
AcDbVertex
100
AcDb2dVertex
 10
382.4639879999998
 20
374.427018
 30
0.0
  0
VERTEX
  5
4F1
330
4E2
100
AcDbEntity
  8
CSLAYER1
  6
DASHED
 62
     4
100
AcDbVertex
100
AcDb2dVertex
 10
382.4777519999998
 20
374.37198
 30
0.0
  0
VERTEX
  5
4F2
330
4E2
100
AcDbEntity
  8
CSLAYER1
  6
DASHED
 62
     4
100
AcDbVertex
100
AcDb2dVertex
 10
382.4915159999998
 20
374.316942
 30
0.0
  0
VERTEX
  5
4F3
330
4E2
100
AcDbEntity
  8
CSLAYER1
  6
DASHED
 62
     4
100
AcDbVertex
100
AcDb2dVertex
 10
382.5052799999998
 20
374.261904
 30
0.0
  0
VERTEX
  5
4F4
330
4E2
100
AcDbEntity
  8
CSLAYER1
  6
DASHED
 62
     4
100
AcDbVertex
100
AcDb2dVertex
 10
382.519044
 20
374.206866
 30
0.0
  0
VERTEX
  5
4F5
330
4E2
100
AcDbEntity
  8
CSLAYER1
  6
DASHED
 62
     4
100
AcDbVertex
100
AcDb2dVertex
 10
382.5328079999998
 20
374.1518279999998
 30
0.0
  0
VERTEX
  5
4F6
330
4E2
100
AcDbEntity
  8
CSLAYER1
  6
DASHED
 62
     4
100
AcDbVertex
100
AcDb2dVertex
 10
382.546574
 20
374.09679
 30
0.0
  0
VERTEX
  5
4F7
330
4E2
100
AcDbEntity
  8
CSLAYER1
  6
DASHED
 62
     4
100
AcDbVertex
100
AcDb2dVertex
 10
382.5628299999998
 20
374.042764
 30
0.0
  0
VERTEX
  5
4F8
330
4E2
100
AcDbEntity
  8
CSLAYER1
  6
DASHED
 62
     4
100
AcDbVertex
100
AcDb2dVertex
 10
382.584072
 20
373.990764
 30
0.0
  0
VERTEX
  5
4F9
330
4E2
100
AcDbEntity
  8
CSLAYER1
  6
DASHED
 62
     4
100
AcDbVertex
100
AcDb2dVertex
 10
382.6102979999998
 20
373.940786
 30
0.0
  0
VERTEX
  5
4FA
330
4E2
100
AcDbEntity
  8
CSLAYER1
  6
DASHED
 62
     4
100
AcDbVertex
100
AcDb2dVertex
 10
382.6415099999998
 20
373.892834
 30
0.0
  0
VERTEX
  5
4FB
330
4E2
100
AcDbEntity
  8
CSLAYER1
  6
DASHED
 62
     4
100
AcDbVertex
100
AcDb2dVertex
 10
382.6777059999998
 20
373.846904
 30
0.0
  0
VERTEX
  5
4FC
330
4E2
100
AcDbEntity
  8
CSLAYER1
  6
DASHED
 62
     4
100
AcDbVertex
100
AcDb2dVertex
 10
382.7188879999998
 20
373.803
 30
0.0
  0
VERTEX
  5
4FD
330
4E2
100
AcDbEntity
  8
CSLAYER1
  6
DASHED
 62
     4
100
AcDbVertex
100
AcDb2dVertex
 10
382.765054
 20
373.7611199999998
 30
0.0
  0
VERTEX
  5
4FE
330
4E2
100
AcDbEntity
  8
CSLAYER1
  6
DASHED
 62
     4
100
AcDbVertex
100
AcDb2dVertex
 10
382.816204
 20
373.7212639999998
 30
0.0
  0
VERTEX
  5
4FF
330
4E2
100
AcDbEntity
  8
CSLAYER1
  6
DASHED
 62
     4
100
AcDbVertex
100
AcDb2dVertex
 10
382.87234
 20
373.6834319999998
 30
0.0
  0
VERTEX
  5
500
330
4E2
100
AcDbEntity
  8
CSLAYER1
  6
DASHED
 62
     4
100
AcDbVertex
100
AcDb2dVertex
 10
382.933462
 20
373.647624
 30
0.0
  0
VERTEX
  5
501
330
4E2
100
AcDbEntity
  8
CSLAYER1
  6
DASHED
 62
     4
100
AcDbVertex
100
AcDb2dVertex
 10
382.999568
 20
373.6138399999998
 30
0.0
  0
VERTEX
  5
502
330
4E2
100
AcDbEntity
  8
CSLAYER1
  6
DASHED
 62
     4
100
AcDbVertex
100
AcDb2dVertex
 10
383.0706579999998
 20
373.5820799999998
 30
0.0
  0
VERTEX
  5
503
330
4E2
100
AcDbEntity
  8
CSLAYER1
  6
DASHED
 62
     4
100
AcDbVertex
100
AcDb2dVertex
 10
383.1467339999998
 20
373.5523459999998
 30
0.0
  0
VERTEX
  5
504
330
4E2
100
AcDbEntity
  8
CSLAYER1
  6
DASHED
 62
     4
100
AcDbVertex
100
AcDb2dVertex
 10
383.227794
 20
373.5246339999998
 30
0.0
  0
VERTEX
  5
505
330
4E2
100
AcDbEntity
  8
CSLAYER1
  6
DASHED
 62
     4
100
AcDbVertex
100
AcDb2dVertex
 10
383.3138399999998
 20
373.4989479999998
 30
0.0
  0
VERTEX
  5
506
330
4E2
100
AcDbEntity
  8
CSLAYER1
  6
DASHED
 62
     4
100
AcDbVertex
100
AcDb2dVertex
 10
383.40487
 20
373.4752859999999
 30
0.0
  0
VERTEX
  5
507
330
4E2
100
AcDbEntity
  8
CSLAYER1
  6
DASHED
 62
     4
100
AcDbVertex
100
AcDb2dVertex
 10
383.5008859999998
 20
373.4536479999998
 30
0.0
  0
VERTEX
  5
508
330
4E2
100
AcDbEntity
  8
CSLAYER1
  6
DASHED
 62
     4
100
AcDbVertex
100
AcDb2dVertex
 10
383.6018859999999
 20
373.434032
 30
0.0
  0
VERTEX
  5
509
330
4E2
100
AcDbEntity
  8
CSLAYER1
  6
DASHED
 62
     4
100
AcDbVertex
100
AcDb2dVertex
 10
383.707872
 20
373.416444
 30
0.0
  0
VERTEX
  5
50A
330
4E2
100
AcDbEntity
  8
CSLAYER1
  6
DASHED
 62
     4
100
AcDbVertex
100
AcDb2dVertex
 10
383.814766
 20
373.3987739999998
 30
0.0
  0
VERTEX
  5
50B
330
4E2
100
AcDbEntity
  8
CSLAYER1
  6
DASHED
 62
     4
100
AcDbVertex
100
AcDb2dVertex
 10
383.9184939999998
 20
373.378922
 30
0.0
  0
VERTEX
  5
50C
330
4E2
100
AcDbEntity
  8
CSLAYER1
  6
DASHED
 62
     4
100
AcDbVertex
100
AcDb2dVertex
 10
384.019052
 20
373.3568879999998
 30
0.0
  0
VERTEX
  5
50D
330
4E2
100
AcDbEntity
  8
CSLAYER1
  6
DASHED
 62
     4
100
AcDbVertex
100
AcDb2dVertex
 10
384.1164459999998
 20
373.3326719999999
 30
0.0
  0
VERTEX
  5
50E
330
4E2
100
AcDbEntity
  8
CSLAYER1
  6
DASHED
 62
     4
100
AcDbVertex
100
AcDb2dVertex
 10
384.210672
 20
373.306272
 30
0.0
  0
VERTEX
  5
50F
330
4E2
100
AcDbEntity
  8
CSLAYER1
  6
DASHED
 62
     4
100
AcDbVertex
100
AcDb2dVertex
 10
384.3017299999998
 20
373.27769
 30
0.0
  0
VERTEX
  5
510
330
4E2
100
AcDbEntity
  8
CSLAYER1
  6
DASHED
 62
     4
100
AcDbVertex
100
AcDb2dVertex
 10
384.389622
 20
373.2469259999998
 30
0.0
  0
VERTEX
  5
511
330
4E2
100
AcDbEntity
  8
CSLAYER1
  6
DASHED
 62
     4
100
AcDbVertex
100
AcDb2dVertex
 10
384.4743459999998
 20
373.213978
 30
0.0
  0
VERTEX
  5
512
330
4E2
100
AcDbEntity
  8
CSLAYER1
  6
DASHED
 62
     4
100
AcDbVertex
100
AcDb2dVertex
 10
384.5559019999998
 20
373.178848
 30
0.0
  0
VERTEX
  5
513
330
4E2
100
AcDbEntity
  8
CSLAYER1
  6
DASHED
 62
     4
100
AcDbVertex
100
AcDb2dVertex
 10
384.634292
 20
373.1415359999998
 30
0.0
  0
VERTEX
  5
514
330
4E2
100
AcDbEntity
  8
CSLAYER1
  6
DASHED
 62
     4
100
AcDbVertex
100
AcDb2dVertex
 10
384.709516
 20
373.1020399999998
 30
0.0
  0
VERTEX
  5
515
330
4E2
100
AcDbEntity
  8
CSLAYER1
  6
DASHED
 62
     4
100
AcDbVertex
100
AcDb2dVertex
 10
384.78157
 20
373.060362
 30
0.0
  0
VERTEX
  5
516
330
4E2
100
AcDbEntity
  8
CSLAYER1
  6
DASHED
 62
     4
100
AcDbVertex
100
AcDb2dVertex
 10
384.85046
 20
373.016502
 30
0.0
  0
VERTEX
  5
517
330
4E2
100
AcDbEntity
  8
CSLAYER1
  6
DASHED
 62
     4
100
AcDbVertex
100
AcDb2dVertex
 10
384.91618
 20
372.97046
 30
0.0
  0
VERTEX
  5
518
330
4E2
100
AcDbEntity
  8
CSLAYER1
  6
DASHED
 62
     4
100
AcDbVertex
100
AcDb2dVertex
 10
384.9787359999998
 20
372.922234
 30
0.0
  0
VERTEX
  5
519
330
4E2
100
AcDbEntity
  8
CSLAYER1
  6
DASHED
 62
     4
100
AcDbVertex
100
AcDb2dVertex
 10
385.038122
 20
372.8718259999999
 30
0.0
  0
VERTEX
  5
51A
330
4E2
100
AcDbEntity
  8
CSLAYER1
  6
DASHED
 62
     4
100
AcDbVertex
100
AcDb2dVertex
 10
385.094342
 20
372.819234
 30
0.0
  0
VERTEX
  5
51B
330
4E2
100
AcDbEntity
  8
CSLAYER1
  6
DASHED
 62
     4
100
AcDbVertex
100
AcDb2dVertex
 10
385.147396
 20
372.7644599999998
 30
0.0
  0
VERTEX
  5
51C
330
4E2
100
AcDbEntity
  8
CSLAYER1
  6
DASHED
 62
     4
100
AcDbVertex
100
AcDb2dVertex
 10
385.19728
 20
372.707504
 30
0.0
  0
VERTEX
  5
51D
330
4E2
100
AcDbEntity
  8
CSLAYER1
  6
DASHED
 62
     4
100
AcDbVertex
100
AcDb2dVertex
 10
385.2029379999998
 20
372.700706
 30
0.0
  0
VERTEX
  5
51E
330
4E2
100
AcDbEntity
  8
CSLAYER1
  6
DASHED
 62
     4
100
AcDbVertex
100
AcDb2dVertex
 10
385.208596
 20
372.693906
 30
0.0
  0
VERTEX
  5
51F
330
4E2
100
AcDbEntity
  8
CSLAYER1
  6
DASHED
 62
     4
100
AcDbVertex
100
AcDb2dVertex
 10
385.2142539999998
 20
372.687108
 30
0.0
  0
VERTEX
  5
520
330
4E2
100
AcDbEntity
  8
CSLAYER1
  6
DASHED
 62
     4
100
AcDbVertex
100
AcDb2dVertex
 10
385.219912
 20
372.680308
 30
0.0
  0
VERTEX
  5
521
330
4E2
100
AcDbEntity
  8
CSLAYER1
  6
DASHED
 62
     4
100
AcDbVertex
100
AcDb2dVertex
 10
385.225568
 20
372.67351
 30
0.0
  0
VERTEX
  5
522
330
4E2
100
AcDbEntity
  8
CSLAYER1
  6
DASHED
 62
     4
100
AcDbVertex
100
AcDb2dVertex
 10
385.231226
 20
372.66671
 30
0.0
  0
VERTEX
  5
523
330
4E2
100
AcDbEntity
  8
CSLAYER1
  6
DASHED
 62
     4
100
AcDbVertex
100
AcDb2dVertex
 10
385.236884
 20
372.659912
 30
0.0
  0
VERTEX
  5
524
330
4E2
100
AcDbEntity
  8
CSLAYER1
  6
DASHED
 62
     4
100
AcDbVertex
100
AcDb2dVertex
 10
385.242542
 20
372.653112
 30
0.0
  0
VERTEX
  5
525
330
4E2
100
AcDbEntity
  8
CSLAYER1
  6
DASHED
 62
     4
100
AcDbVertex
100
AcDb2dVertex
 10
385.248198
 20
372.646314
 30
0.0
  0
VERTEX
  5
526
330
4E2
100
AcDbEntity
  8
CSLAYER1
  6
DASHED
 62
     4
100
AcDbVertex
100
AcDb2dVertex
 10
385.2538559999998
 20
372.639514
 30
0.0
  0
VERTEX
  5
527
330
4E2
100
AcDbEntity
  8
CSLAYER1
  6
DASHED
 62
     4
100
AcDbVertex
100
AcDb2dVertex
 10
385.259514
 20
372.632716
 30
0.0
  0
VERTEX
  5
528
330
4E2
100
AcDbEntity
  8
CSLAYER1
  6
DASHED
 62
     4
100
AcDbVertex
100
AcDb2dVertex
 10
385.265172
 20
372.625916
 30
0.0
  0
VERTEX
  5
529
330
4E2
100
AcDbEntity
  8
CSLAYER1
  6
DASHED
 62
     4
100
AcDbVertex
100
AcDb2dVertex
 10
385.27083
 20
372.619118
 30
0.0
  0
VERTEX
  5
52A
330
4E2
100
AcDbEntity
  8
CSLAYER1
  6
DASHED
 62
     4
100
AcDbVertex
100
AcDb2dVertex
 10
385.2764859999998
 20
372.612318
 30
0.0
  0
VERTEX
  5
52B
330
4E2
100
AcDbEntity
  8
CSLAYER1
  6
DASHED
 62
     4
100
AcDbVertex
100
AcDb2dVertex
 10
385.2821439999998
 20
372.60552
 30
0.0
  0
VERTEX
  5
52C
330
4E2
100
AcDbEntity
  8
CSLAYER1
  6
DASHED
 62
     4
100
AcDbVertex
100
AcDb2dVertex
 10
385.2878019999998
 20
372.59872
 30
0.0
  0
VERTEX
  5
52D
330
4E2
100
AcDbEntity
  8
CSLAYER1
  6
DASHED
 62
     4
100
AcDbVertex
100
AcDb2dVertex
 10
385.2934599999998
 20
372.591922
 30
0.0
  0
VERTEX
  5
52E
330
4E2
100
AcDbEntity
  8
CSLAYER1
  6
DASHED
 62
     4
100
AcDbVertex
100
AcDb2dVertex
 10
385.299116
 20
372.5851219999998
 30
0.0
  0
VERTEX
  5
52F
330
4E2
100
AcDbEntity
  8
CSLAYER1
  6
DASHED
 62
     4
100
AcDbVertex
100
AcDb2dVertex
 10
385.304774
 20
372.578324
 30
0.0
  0
SEQEND
  5
530
330
4E2
100
AcDbEntity
  8
CSLAYER1
 62
     4
  0
POLYLINE
  5
531
330
1E
100
AcDbEntity
  8
CSLAYER1
  6
CONTINUOUS
 62
     4
100
AcDb2dPolyline
 66
     1
 10
0.0
 20
0.0
 30
0.0
  0
VERTEX
  5
532
330
531
100
AcDbEntity
  8
CSLAYER1
  6
CONTINUOUS
 62
     4
100
AcDbVertex
100
AcDb2dVertex
 10
385.304774
 20
372.578324
 30
0.0
  0
VERTEX
  5
533
330
531
100
AcDbEntity
  8
CSLAYER1
  6
CONTINUOUS
 62
     4
100
AcDbVertex
100
AcDb2dVertex
 10
385.3474199999999
 20
372.5270759999999
 30
0.0
  0
VERTEX
  5
534
330
531
100
AcDbEntity
  8
CSLAYER1
  6
CONTINUOUS
 62
     4
100
AcDbVertex
100
AcDb2dVertex
 10
385.3900639999998
 20
372.4758279999998
 30
0.0
  0
VERTEX
  5
535
330
531
100
AcDbEntity
  8
CSLAYER1
  6
CONTINUOUS
 62
     4
100
AcDbVertex
100
AcDb2dVertex
 10
385.432708
 20
372.4245779999999
 30
0.0
  0
VERTEX
  5
536
330
531
100
AcDbEntity
  8
CSLAYER1
  6
CONTINUOUS
 62
     4
100
AcDbVertex
100
AcDb2dVertex
 10
385.4753519999998
 20
372.3733299999998
 30
0.0
  0
VERTEX
  5
537
330
531
100
AcDbEntity
  8
CSLAYER1
  6
CONTINUOUS
 62
     4
100
AcDbVertex
100
AcDb2dVertex
 10
385.5179979999998
 20
372.3220819999998
 30
0.0
  0
VERTEX
  5
538
330
531
100
AcDbEntity
  8
CSLAYER1
  6
CONTINUOUS
 62
     4
100
AcDbVertex
100
AcDb2dVertex
 10
385.5606419999999
 20
372.270834
 30
0.0
  0
VERTEX
  5
539
330
531
100
AcDbEntity
  8
CSLAYER1
  6
CONTINUOUS
 62
     4
100
AcDbVertex
100
AcDb2dVertex
 10
385.6032859999998
 20
372.2195859999998
 30
0.0
  0
VERTEX
  5
53A
330
531
100
AcDbEntity
  8
CSLAYER1
  6
CONTINUOUS
 62
     4
100
AcDbVertex
100
AcDb2dVertex
 10
385.6459319999998
 20
372.1683379999998
 30
0.0
  0
VERTEX
  5
53B
330
531
100
AcDbEntity
  8
CSLAYER1
  6
CONTINUOUS
 62
     4
100
AcDbVertex
100
AcDb2dVertex
 10
385.6885759999998
 20
372.1170879999998
 30
0.0
  0
VERTEX
  5
53C
330
531
100
AcDbEntity
  8
CSLAYER1
  6
CONTINUOUS
 62
     4
100
AcDbVertex
100
AcDb2dVertex
 10
385.7312199999998
 20
372.0658399999998
 30
0.0
  0
VERTEX
  5
53D
330
531
100
AcDbEntity
  8
CSLAYER1
  6
CONTINUOUS
 62
     4
100
AcDbVertex
100
AcDb2dVertex
 10
385.7738659999998
 20
372.014592
 30
0.0
  0
VERTEX
  5
53E
330
531
100
AcDbEntity
  8
CSLAYER1
  6
CONTINUOUS
 62
     4
100
AcDbVertex
100
AcDb2dVertex
 10
385.8165099999999
 20
371.9633439999998
 30
0.0
  0
VERTEX
  5
53F
330
531
100
AcDbEntity
  8
CSLAYER1
  6
CONTINUOUS
 62
     4
100
AcDbVertex
100
AcDb2dVertex
 10
385.8591539999998
 20
371.912096
 30
0.0
  0
VERTEX
  5
540
330
531
100
AcDbEntity
  8
CSLAYER1
  6
CONTINUOUS
 62
     4
100
AcDbVertex
100
AcDb2dVertex
 10
385.9017979999999
 20
371.8608479999998
 30
0.0
  0
VERTEX
  5
541
330
531
100
AcDbEntity
  8
CSLAYER1
  6
CONTINUOUS
 62
     4
100
AcDbVertex
100
AcDb2dVertex
 10
385.9444439999999
 20
371.809598
 30
0.0
  0
VERTEX
  5
542
330
531
100
AcDbEntity
  8
CSLAYER1
  6
CONTINUOUS
 62
     4
100
AcDbVertex
100
AcDb2dVertex
 10
385.9870879999998
 20
371.7583499999998
 30
0.0
  0
VERTEX
  5
543
330
531
100
AcDbEntity
  8
CSLAYER1
  6
CONTINUOUS
 62
     4
100
AcDbVertex
100
AcDb2dVertex
 10
386.0297319999999
 20
371.707102
 30
0.0
  0
VERTEX
  5
544
330
531
100
AcDbEntity
  8
CSLAYER1
  6
CONTINUOUS
 62
     4
100
AcDbVertex
100
AcDb2dVertex
 10
386.0723779999999
 20
371.6558539999998
 30
0.0
  0
VERTEX
  5
545
330
531
100
AcDbEntity
  8
CSLAYER1
  6
CONTINUOUS
 62
     4
100
AcDbVertex
100
AcDb2dVertex
 10
386.115022
 20
371.604606
 30
0.0
  0
SEQEND
  5
546
330
531
100
AcDbEntity
  8
CSLAYER1
 62
     4
  0
LINE
  5
547
330
1E
100
AcDbEntity
  8
CSLAYER1
  6
CONTINUOUS
 62
     3
100
AcDbLine
 10
419.349824
 20
334.078324
 30
0.0
 11
419.349824
 21
287.578324
 31
0.0
  0
LINE
  5
548
330
1E
100
AcDbEntity
  8
CSLAYER1
  6
CONTINUOUS
 62
     3
100
AcDbLine
 10
392.149824
 20
287.578324
 30
0.0
 11
392.149824
 21
334.078324
 31
0.0
  0
LINE
  5
549
330
1E
100
AcDbEntity
  8
CSLAYER1
  6
CONTINUOUS
 62
     3
100
AcDbLine
 10
428.749824
 20
334.078324
 30
0.0
 11
428.749824
 21
287.578324
 31
0.0
  0
LINE
  5
54A
330
1E
100
AcDbEntity
  8
CSLAYER1
  6
CONTINUOUS
 62
     3
100
AcDbLine
 10
435.749824
 20
287.578324
 30
0.0
 11
435.749824
 21
325.5783239999995
 31
0.0
  0
LINE
  5
54B
330
1E
100
AcDbEntity
  8
CSLAYER1
  6
CONTINUOUS
 62
     3
100
AcDbLine
 10
220.1432339999995
 20
370.578324
 30
0.0
 11
252.6432339999998
 21
370.578324
 31
0.0
  0
LINE
  5
54C
330
1E
100
AcDbEntity
  8
CSLAYER1
  6
CONTINUOUS
 62
     3
100
AcDbLine
 10
252.6432339999998
 20
370.578324
 30
0.0
 11
252.6432339999998
 21
335.578324
 31
0.0
  0
LINE
  5
54D
330
1E
100
AcDbEntity
  8
CSLAYER1
  6
CONTINUOUS
 62
     3
100
AcDbLine
 10
252.6432339999998
 20
335.578324
 30
0.0
 11
228.1432339999998
 21
335.578324
 31
0.0
  0
LINE
  5
54E
330
1E
100
AcDbEntity
  8
CSLAYER1
  6
CONTINUOUS
 62
     3
100
AcDbLine
 10
228.6432339999995
 20
335.578324
 30
0.0
 11
228.6432339999995
 21
334.378324
 31
0.0
  0
LINE
  5
54F
330
1E
100
AcDbEntity
  8
CSLAYER1
  6
CONTINUOUS
 62
     3
100
AcDbLine
 10
228.6432339999995
 20
334.378324
 30
0.0
 11
243.6432339999998
 21
334.378324
 31
0.0
  0
LINE
  5
550
330
1E
100
AcDbEntity
  8
CSLAYER1
  6
CONTINUOUS
 62
     3
100
AcDbLine
 10
243.6432339999998
 20
334.378324
 30
0.0
 11
243.6432339999998
 21
335.578324
 31
0.0
  0
LINE
  5
551
330
1E
100
AcDbEntity
  8
CSLAYER1
  6
CONTINUOUS
 62
     3
100
AcDbLine
 10
244.1432339999998
 20
334.078324
 30
0.0
 11
244.1432339999998
 21
420.578324
 31
0.0
  0
LINE
  5
552
330
1E
100
AcDbEntity
  8
CSLAYER1
  6
CONTINUOUS
 62
     3
100
AcDbLine
 10
244.1432339999998
 20
420.578324
 30
0.0
 11
236.1432339999998
 21
420.578324
 31
0.0
  0
LINE
  5
553
330
1E
100
AcDbEntity
  8
CSLAYER1
  6
CONTINUOUS
 62
     3
100
AcDbLine
 10
236.1432339999998
 20
420.578324
 30
0.0
 11
236.1432339999998
 21
371.7783239999998
 31
0.0
  0
LINE
  5
554
330
1E
100
AcDbEntity
  8
CSLAYER1
  6
DASHED
 62
     4
100
AcDbLine
 10
235.643234
 20
371.7783239999998
 30
0.0
 11
235.643234
 21
370.578324
 31
0.0
  0
LINE
  5
555
330
1E
100
AcDbEntity
  8
CSLAYER1
  6
CONTINUOUS
 62
     3
100
AcDbLine
 10
234.8932339999995
 20
371.7783239999998
 30
0.0
 11
234.81911
 21
372.625572
 31
0.0
  0
ARC
  5
556
330
1E
100
AcDbEntity
  8
CSLAYER1
  6
CONTINUOUS
 62
     3
100
AcDbCircle
 10
233.822916
 20
372.538418
 30
0.0
 40
1.0
100
AcDbArc
 50
5.0
 51
73.742972
  0
ARC
  5
557
330
1E
100
AcDbEntity
  8
CSLAYER1
  6
CONTINUOUS
 62
     3
100
AcDbCircle
 10
232.1432339999998
 20
366.7783239999998
 30
0.0
 40
7.0
100
AcDbArc
 50
73.742972
 51
106.257028
  0
ARC
  5
558
330
1E
100
AcDbEntity
  8
CSLAYER1
  6
CONTINUOUS
 62
     3
100
AcDbCircle
 10
230.463554
 20
372.538418
 30
0.0
 40
1.0
100
AcDbArc
 50
106.257028
 51
175.0
  0
LINE
  5
559
330
1E
100
AcDbEntity
  8
CSLAYER1
  6
CONTINUOUS
 62
     3
100
AcDbLine
 10
229.46736
 20
372.625572
 30
0.0
 11
229.393234
 21
371.7783239999998
 31
0.0
  0
LINE
  5
55A
330
1E
100
AcDbEntity
  8
CSLAYER1
  6
CONTINUOUS
 62
     3
100
AcDbLine
 10
228.6432339999995
 20
371.7783239999998
 30
0.0
 11
243.6432339999998
 21
371.7783239999998
 31
0.0
  0
LINE
  5
55B
330
1E
100
AcDbEntity
  8
CSLAYER1
  6
CONTINUOUS
 62
     3
100
AcDbLine
 10
243.6432339999998
 20
371.7783239999998
 30
0.0
 11
243.6432339999998
 21
370.578324
 31
0.0
  0
LINE
  5
55C
330
1E
100
AcDbEntity
  8
CSLAYER1
  6
CONTINUOUS
 62
     3
100
AcDbLine
 10
245.6432339999998
 20
370.578324
 30
0.0
 11
245.6432339999998
 21
335.578324
 31
0.0
  0
LINE
  5
55D
330
1E
100
AcDbEntity
  8
CSLAYER1
  6
CONTINUOUS
 62
     3
100
AcDbLine
 10
248.6432339999998
 20
335.578324
 30
0.0
 11
248.6432339999998
 21
370.578324
 31
0.0
  0
LINE
  5
55E
330
1E
100
AcDbEntity
  8
CSLAYER1
  6
CONTINUOUS
 62
     3
100
AcDbLine
 10
244.1432339999998
 20
372.578324
 30
0.0
 11
236.1432339999998
 21
372.578324
 31
0.0
  0
CIRCLE
  5
55F
330
1E
100
AcDbEntity
  8
CSLAYER1
  6
DASHED
 62
     4
100
AcDbCircle
 10
240.1432339999998
 20
376.578324
 30
0.0
 40
3.149999999999999
  0
LINE
  5
560
330
1E
100
AcDbEntity
  8
CSLAYER1
  6
CONTINUOUS
 62
     3
100
AcDbLine
 10
236.1432339999998
 20
380.5325119999998
 30
0.0
 11
237.762722
 21
383.5783239999998
 31
0.0
  0
LINE
  5
561
330
1E
100
AcDbEntity
  8
CSLAYER1
  6
CONTINUOUS
 62
     3
100
AcDbLine
 10
237.762722
 20
383.5783239999998
 30
0.0
 11
244.1432339999998
 21
383.5783239999998
 31
0.0
  0
ARC
  5
562
330
1E
100
AcDbEntity
  8
CSLAYER1
  6
CONTINUOUS
 62
     3
100
AcDbCircle
 10
238.739906
 20
384.578324
 30
0.0
 40
1.0
100
AcDbArc
 50
270.0
 51
340.0
  0
LINE
  5
563
330
1E
100
AcDbEntity
  8
CSLAYER1
  6
CONTINUOUS
 62
     3
100
AcDbLine
 10
239.6795979999998
 20
384.236304
 30
0.0
 11
243.079816
 21
393.5783239999998
 31
0.0
  0
LINE
  5
564
330
1E
100
AcDbEntity
  8
CSLAYER1
  6
CONTINUOUS
 62
     3
100
AcDbLine
 10
243.079816
 20
393.5783239999998
 30
0.0
 11
244.1432339999998
 21
395.578324
 31
0.0
  0
LINE
  5
565
330
1E
100
AcDbEntity
  8
CSLAYER1
  6
CONTINUOUS
 62
     3
100
AcDbLine
 10
244.1432339999998
 20
395.078324
 30
0.0
 11
243.8923799999998
 21
390.2917459999999
 31
0.0
  0
ARC
  5
566
330
1E
100
AcDbEntity
  8
CSLAYER1
  6
CONTINUOUS
 62
     3
100
AcDbCircle
 10
244.0921059999998
 20
390.281278
 30
0.0
 40
0.2
100
AcDbArc
 50
177.0
 51
267.0
  0
LINE
  5
567
330
1E
100
AcDbEntity
  8
CSLAYER1
  6
CONTINUOUS
 62
     3
100
AcDbLine
 10
244.08164
 20
390.081552
 30
0.0
 11
244.1432339999998
 21
390.0783239999998
 31
0.0
  0
LINE
  5
568
330
1E
100
AcDbEntity
  8
CSLAYER1
  6
CONTINUOUS
 62
     3
100
AcDbLine
 10
242.1432339999998
 20
393.5783239999998
 30
0.0
 11
238.1432339999998
 21
393.5783239999998
 31
0.0
  0
LINE
  5
569
330
1E
100
AcDbEntity
  8
CSLAYER1
  6
CONTINUOUS
 62
     3
100
AcDbLine
 10
237.643234
 20
394.078324
 30
0.0
 11
237.643234
 21
401.578324
 31
0.0
  0
LINE
  5
56A
330
1E
100
AcDbEntity
  8
CSLAYER1
  6
CONTINUOUS
 62
     3
100
AcDbLine
 10
236.1432339999998
 20
401.578324
 30
0.0
 11
242.1432339999998
 21
401.578324
 31
0.0
  0
ARC
  5
56B
330
1E
100
AcDbEntity
  8
CSLAYER1
  6
CONTINUOUS
 62
     3
100
AcDbCircle
 10
242.1432339999998
 20
403.5783239999998
 30
0.0
 40
2.0
100
AcDbArc
 50
270.0
 51
0.0
  0
LINE
  5
56C
330
1E
100
AcDbEntity
  8
CSLAYER1
  6
CONTINUOUS
 62
     3
100
AcDbLine
 10
242.6432339999998
 20
401.6418319999998
 30
0.0
 11
242.6432339999998
 21
394.078324
 31
0.0
  0
LINE
  5
56D
330
1E
100
AcDbEntity
  8
CSLAYER1
  6
CONTINUOUS
 62
     3
100
AcDbLine
 10
242.1432339999998
 20
401.578324
 30
0.0
 11
236.1432339999998
 21
415.713438
 31
0.0
  0
LINE
  5
56E
330
1E
100
AcDbEntity
  8
CSLAYER1
  6
CONTINUOUS
 62
     3
100
AcDbLine
 10
260.143234
 20
325.5783239999995
 30
0.0
 11
249.7432339999998
 21
325.5783239999995
 31
0.0
  0
LINE
  5
56F
330
1E
100
AcDbEntity
  8
CSLAYER1
  6
CONTINUOUS
 62
     3
100
AcDbLine
 10
249.7432339999998
 20
334.078324
 30
0.0
 11
228.1432339999998
 21
334.078324
 31
0.0
  0
LINE
  5
570
330
1E
100
AcDbEntity
  8
CSLAYER1
  6
CONTINUOUS
 62
     3
100
AcDbLine
 10
229.393234
 20
334.378324
 30
0.0
 11
229.4194819999998
 21
334.078324
 31
0.0
  0
CIRCLE
  5
571
330
1E
100
AcDbEntity
  8
CSLAYER1
  6
CONTINUOUS
 62
     3
100
AcDbCircle
 10
224.1432339999998
 20
333.078324
 30
0.0
 40
2.1
  0
CIRCLE
  5
572
330
1E
100
AcDbEntity
  8
CSLAYER1
  6
CONTINUOUS
 62
     3
100
AcDbCircle
 10
224.1432339999998
 20
353.078324
 30
0.0
 40
2.1
  0
LINE
  5
573
330
1E
100
AcDbEntity
  8
CSLAYER1
  6
CONTINUOUS
 62
     3
100
AcDbLine
 10
228.6432339999995
 20
371.7783239999998
 30
0.0
 11
228.6432339999995
 21
370.578324
 31
0.0
  0
ARC
  5
574
330
1E
100
AcDbEntity
  8
CSLAYER1
  6
CONTINUOUS
 62
     3
100
AcDbCircle
 10
255.6432339999995
 20
343.328324
 30
0.0
 40
0.5
100
AcDbArc
 50
270.0
 51
0.0
  0
LINE
  5
575
330
1E
100
AcDbEntity
  8
CSLAYER1
  6
CONTINUOUS
 62
     3
100
AcDbLine
 10
255.6432339999995
 20
342.828324
 30
0.0
 11
252.6432339999998
 21
342.828324
 31
0.0
  0
LINE
  5
576
330
1E
100
AcDbEntity
  8
CSLAYER1
  6
CONTINUOUS
 62
     3
100
AcDbLine
 10
256.143234
 20
343.328324
 30
0.0
 11
256.143234
 21
347.828324
 31
0.0
  0
ARC
  5
577
330
1E
100
AcDbEntity
  8
CSLAYER1
  6
CONTINUOUS
 62
     3
100
AcDbCircle
 10
255.6432339999995
 20
347.828324
 30
0.0
 40
0.5
100
AcDbArc
 50
0.0
 51
90.0
  0
LINE
  5
578
330
1E
100
AcDbEntity
  8
CSLAYER1
  6
CONTINUOUS
 62
     3
100
AcDbLine
 10
255.6432339999995
 20
348.328324
 30
0.0
 11
252.6432339999998
 21
348.328324
 31
0.0
  0
LINE
  5
579
330
1E
100
AcDbEntity
  8
CSLAYER1
  6
CONTINUOUS
 62
     3
100
AcDbLine
 10
252.6432339999998
 20
357.828324
 30
0.0
 11
255.6432339999995
 21
357.828324
 31
0.0
  0
ARC
  5
57A
330
1E
100
AcDbEntity
  8
CSLAYER1
  6
CONTINUOUS
 62
     3
100
AcDbCircle
 10
255.6432339999995
 20
358.328324
 30
0.0
 40
0.5
100
AcDbArc
 50
270.0
 51
0.0
  0
LINE
  5
57B
330
1E
100
AcDbEntity
  8
CSLAYER1
  6
CONTINUOUS
 62
     3
100
AcDbLine
 10
256.143234
 20
358.328324
 30
0.0
 11
256.143234
 21
362.828324
 31
0.0
  0
ARC
  5
57C
330
1E
100
AcDbEntity
  8
CSLAYER1
  6
CONTINUOUS
 62
     3
100
AcDbCircle
 10
255.6432339999995
 20
362.828324
 30
0.0
 40
0.5
100
AcDbArc
 50
0.0
 51
90.0
  0
LINE
  5
57D
330
1E
100
AcDbEntity
  8
CSLAYER1
  6
CONTINUOUS
 62
     3
100
AcDbLine
 10
255.6432339999995
 20
363.328324
 30
0.0
 11
252.6432339999998
 21
363.328324
 31
0.0
  0
LINE
  5
57E
330
1E
100
AcDbEntity
  8
CSLAYER1
  6
CONTINUOUS
 62
     3
100
AcDbLine
 10
235.643234
 20
335.578324
 30
0.0
 11
235.643234
 21
334.378324
 31
0.0
  0
LINE
  5
57F
330
1E
100
AcDbEntity
  8
CSLAYER1
  6
CONTINUOUS
 62
     3
100
AcDbLine
 10
236.1432339999998
 20
334.378324
 30
0.0
 11
236.1432339999998
 21
334.078324
 31
0.0
  0
LINE
  5
580
330
1E
100
AcDbEntity
  8
CSLAYER1
  6
CONTINUOUS
 62
     3
100
AcDbLine
 10
234.8932339999995
 20
334.378324
 30
0.0
 11
234.866988
 21
334.078324
 31
0.0
  0
ARC
  5
581
330
1E
100
AcDbEntity
  8
CSLAYER1
  6
DASHED
 62
     4
100
AcDbCircle
 10
148.598976
 20
376.06062
 30
0.0
 40
100.0
100
AcDbArc
 50
17.168153
 51
26.43466599999999
  0
LINE
  5
582
330
1E
100
AcDbEntity
  8
CSLAYER1
  6
CONTINUOUS
 62
     4
100
AcDbLine
 10
242.1432339999998
 20
401.578324
 30
0.0
 11
242.1432339999998
 21
394.078324
 31
0.0
  0
LINE
  5
583
330
1E
100
AcDbEntity
  8
CSLAYER1
  6
CONTINUOUS
 62
     4
100
AcDbLine
 10
242.1432339999998
 20
393.5783239999998
 30
0.0
 11
242.6432339999998
 21
394.078324
 31
0.0
  0
LINE
  5
584
330
1E
100
AcDbEntity
  8
CSLAYER1
  6
CONTINUOUS
 62
     4
100
AcDbLine
 10
242.6432339999998
 20
394.078324
 30
0.0
 11
237.643234
 21
394.078324
 31
0.0
  0
LINE
  5
585
330
1E
100
AcDbEntity
  8
CSLAYER1
  6
CONTINUOUS
 62
     4
100
AcDbLine
 10
237.643234
 20
394.078324
 30
0.0
 11
238.1432339999998
 21
393.5783239999998
 31
0.0
  0
LINE
  5
586
330
1E
100
AcDbEntity
  8
CSLAYER1
  6
CONTINUOUS
 62
     4
100
AcDbLine
 10
238.1432339999998
 20
394.078324
 30
0.0
 11
238.1432339999998
 21
401.578324
 31
0.0
  0
LINE
  5
587
330
1E
100
AcDbEntity
  8
CSLAYER1
  6
CENTER
 62
     4
100
AcDbLine
 10
246.2652299999998
 20
376.578324
 30
0.0
 11
229.3745959999998
 21
376.578324
 31
0.0
  0
LINE
  5
588
330
1E
100
AcDbEntity
  8
CSLAYER1
  6
CENTER
 62
     4
100
AcDbLine
 10
232.1432339999998
 20
375.6570919999998
 30
0.0
 11
232.1432339999998
 21
367.5495339999998
 31
0.0
  0
LINE
  5
589
330
1E
100
AcDbEntity
  8
CSLAYER1
  6
CENTER
 62
     4
100
AcDbLine
 10
224.1432339999998
 20
326.080088
 30
0.0
 11
224.1432339999998
 21
360.578324
 31
0.0
  0
LINE
  5
58A
330
1E
100
AcDbEntity
  8
CSLAYER1
  6
CENTER
 62
     4
100
AcDbLine
 10
232.1432339999998
 20
337.90224
 30
0.0
 11
232.1432339999998
 21
330.51797
 31
0.0
  0
LINE
  5
58B
330
1E
100
AcDbEntity
  8
CSLAYER1
  6
CENTER
 62
     4
100
AcDbLine
 10
232.1689479999998
 20
333.078324
 30
0.0
 11
215.732378
 21
333.078324
 31
0.0
  0
CIRCLE
  5
58C
330
1E
100
AcDbEntity
  8
CSLAYER1
  6
CONTINUOUS
 62
     4
100
AcDbCircle
 10
224.1432339999998
 20
353.078324
 30
0.0
 40
2.5
  0
LINE
  5
58D
330
1E
100
AcDbEntity
  8
CSLAYER1
  6
CENTER
 62
     4
100
AcDbLine
 10
216.658002
 20
363.0783239999998
 30
0.0
 11
237.6780279999995
 21
363.0783239999998
 31
0.0
  0
LINE
  5
58E
330
1E
100
AcDbEntity
  8
CSLAYER1
  6
CENTER
 62
     4
100
AcDbLine
 10
251.240766
 20
360.578324
 30
0.0
 11
257.790948
 21
360.578324
 31
0.0
  0
LINE
  5
58F
330
1E
100
AcDbEntity
  8
CSLAYER1
  6
CENTER
 62
     4
100
AcDbLine
 10
257.486468
 20
345.578324
 30
0.0
 11
251.34392
 21
345.578324
 31
0.0
  0
LINE
  5
590
330
1E
100
AcDbEntity
  8
CSLAYER1
  6
CENTER
 62
     4
100
AcDbLine
 10
237.6780279999995
 20
343.078324
 30
0.0
 11
216.658002
 21
343.078324
 31
0.0
  0
CIRCLE
  5
591
330
1E
100
AcDbEntity
  8
CSLAYER1
  6
CONTINUOUS
 62
     4
100
AcDbCircle
 10
224.1432339999998
 20
333.078324
 30
0.0
 40
2.5
  0
LINE
  5
592
330
1E
100
AcDbEntity
  8
CSLAYER1
  6
CENTER
 62
     4
100
AcDbLine
 10
232.1689479999998
 20
353.078324
 30
0.0
 11
215.732378
 21
353.078324
 31
0.0
  0
POINT
  5
593
330
1E
100
AcDbEntity
  8
CSLAYER1
 62
     3
100
AcDbPoint
 10
240.1432339999998
 20
377.5783239999998
 30
0.0
  0
ARC
  5
594
330
1E
100
AcDbEntity
  8
CSLAYER1
  6
CONTINUOUS
 62
     4
100
AcDbCircle
 10
240.1432339999998
 20
376.578324
 30
0.0
 40
4.0
100
AcDbArc
 50
0.0
 51
180.0
  0
LINE
  5
595
330
1E
100
AcDbEntity
  8
CSLAYER1
  6
CONTINUOUS
 62
     4
100
AcDbLine
 10
236.1432339999998
 20
355.578324
 30
0.0
 11
244.1432339999998
 21
355.578324
 31
0.0
  0
LINE
  5
596
330
1E
100
AcDbEntity
  8
CSLAYER1
  6
CONTINUOUS
 62
     4
100
AcDbLine
 10
244.1432339999998
 20
376.578324
 30
0.0
 11
244.1432339999998
 21
355.578324
 31
0.0
  0
LINE
  5
597
330
1E
100
AcDbEntity
  8
CSLAYER1
  6
CONTINUOUS
 62
     4
100
AcDbLine
 10
236.1432339999998
 20
376.578324
 30
0.0
 11
236.1432339999998
 21
355.578324
 31
0.0
  0
LINE
  5
598
330
1E
100
AcDbEntity
  8
CSLAYER1
  6
CONTINUOUS
 62
     4
100
AcDbLine
 10
241.1432339999995
 20
355.578324
 30
0.0
 11
241.1432339999995
 21
319.653806
 31
0.0
  0
LINE
  5
599
330
1E
100
AcDbEntity
  8
CSLAYER1
  6
CONTINUOUS
 62
     4
100
AcDbLine
 10
239.1432339999995
 20
355.578324
 30
0.0
 11
239.1432339999995
 21
319.653806
 31
0.0
  0
INSERT
  5
59A
330
1E
100
AcDbEntity
  8
CSLAYER1
100
AcDbBlockReference
  2
BLKF0010
 10
0.0
 20
0.0
 30
0.0
 41
2.0
 42
2.0
 43
2.0
  0
LINE
  5
59B
330
1E
100
AcDbEntity
  8
CSLAYER1
  6
DASHED
 62
     4
100
AcDbLine
 10
239.5658839999998
 20
365.0783239999998
 30
0.0
 11
238.9885339999998
 21
366.078324
 31
0.0
  0
LINE
  5
59C
330
1E
100
AcDbEntity
  8
CSLAYER1
  6
DASHED
 62
     4
100
AcDbLine
 10
238.9885339999998
 20
366.078324
 30
0.0
 11
239.5658839999998
 21
367.078324
 31
0.0
  0
LINE
  5
59D
330
1E
100
AcDbEntity
  8
CSLAYER1
  6
DASHED
 62
     4
100
AcDbLine
 10
239.5658839999998
 20
367.078324
 30
0.0
 11
240.7205839999998
 21
367.078324
 31
0.0
  0
LINE
  5
59E
330
1E
100
AcDbEntity
  8
CSLAYER1
  6
DASHED
 62
     4
100
AcDbLine
 10
240.7205839999998
 20
367.078324
 30
0.0
 11
241.297934
 21
366.078324
 31
0.0
  0
LINE
  5
59F
330
1E
100
AcDbEntity
  8
CSLAYER1
  6
DASHED
 62
     4
100
AcDbLine
 10
241.297934
 20
366.078324
 30
0.0
 11
240.7205839999998
 21
365.0783239999998
 31
0.0
  0
LINE
  5
5A0
330
1E
100
AcDbEntity
  8
CSLAYER1
  6
DASHED
 62
     4
100
AcDbLine
 10
240.7205839999998
 20
365.0783239999998
 30
0.0
 11
239.5658839999998
 21
365.0783239999998
 31
0.0
  0
INSERT
  5
5A1
330
1E
100
AcDbEntity
  8
CSLAYER1
100
AcDbBlockReference
  2
BLKF0011
 10
0.0
 20
0.0
 30
0.0
 41
2.0
 42
2.0
 43
2.0
  0
LINE
  5
5A2
330
1E
100
AcDbEntity
  8
CSLAYER1
  6
DASHED
 62
     4
100
AcDbLine
 10
239.5658839999998
 20
339.078324
 30
0.0
 11
239.1432339999995
 21
339.810374
 31
0.0
  0
LINE
  5
5A3
330
1E
100
AcDbEntity
  8
CSLAYER1
  6
CONTINUOUS
 62
     3
100
AcDbLine
 10
238.9885339999998
 20
340.0783239999995
 30
0.0
 11
239.1432339999995
 21
340.346274
 31
0.0
  0
LINE
  5
5A4
330
1E
100
AcDbEntity
  8
CSLAYER1
  6
DASHED
 62
     4
100
AcDbLine
 10
239.5658839999998
 20
341.078324
 30
0.0
 11
240.7205839999998
 21
341.078324
 31
0.0
  0
LINE
  5
5A5
330
1E
100
AcDbEntity
  8
CSLAYER1
  6
DASHED
 62
     4
100
AcDbLine
 10
240.7205839999998
 20
341.078324
 30
0.0
 11
241.1432339999995
 21
340.346274
 31
0.0
  0
LINE
  5
5A6
330
1E
100
AcDbEntity
  8
CSLAYER1
  6
CONTINUOUS
 62
     3
100
AcDbLine
 10
241.297934
 20
340.0783239999995
 30
0.0
 11
241.1432339999995
 21
339.810374
 31
0.0
  0
LINE
  5
5A7
330
1E
100
AcDbEntity
  8
CSLAYER1
  6
DASHED
 62
     4
100
AcDbLine
 10
240.7205839999998
 20
339.078324
 30
0.0
 11
239.5658839999998
 21
339.078324
 31
0.0
  0
LINE
  5
5A8
330
1E
100
AcDbEntity
  8
CSLAYER1
  6
CONTINUOUS
 62
     4
100
AcDbLine
 10
234.1432339999998
 20
379.078324
 30
0.0
 11
233.943234
 21
379.078324
 31
0.0
  0
LINE
  5
5A9
330
1E
100
AcDbEntity
  8
CSLAYER1
  6
CONTINUOUS
 62
     4
100
AcDbLine
 10
235.3432339999998
 20
380.578324
 30
0.0
 11
236.1432339999998
 21
380.578324
 31
0.0
  0
LINE
  5
5AA
330
1E
100
AcDbEntity
  8
CSLAYER1
  6
CONTINUOUS
 62
     3
100
AcDbLine
 10
231.3432339999998
 20
379.558708
 30
0.0
 11
231.3432339999998
 21
373.7324599999999
 31
0.0
  0
LINE
  5
5AB
330
1E
100
AcDbEntity
  8
CSLAYER1
  6
CONTINUOUS
 62
     3
100
AcDbLine
 10
235.3432339999998
 20
380.078324
 30
0.0
 11
231.6432339999998
 21
380.078324
 31
0.0
  0
LINE
  5
5AC
330
1E
100
AcDbEntity
  8
CSLAYER1
  6
CONTINUOUS
 62
     3
100
AcDbLine
 10
231.6432339999998
 20
380.078324
 30
0.0
 11
231.6432339999998
 21
373.760444
 31
0.0
  0
ARC
  5
5AD
330
1E
100
AcDbEntity
  8
CSLAYER1
  6
CONTINUOUS
 62
     4
100
AcDbCircle
 10
233.943234
 20
377.078324
 30
0.0
 40
2.0
100
AcDbArc
 50
90.0
 51
180.0
  0
ARC
  5
5AE
330
1E
100
AcDbEntity
  8
CSLAYER1
  6
CONTINUOUS
 62
     4
100
AcDbCircle
 10
234.1432339999998
 20
377.078324
 30
0.0
 40
2.0
100
AcDbArc
 50
0.0
 51
90.0
  0
LINE
  5
5AF
330
1E
100
AcDbEntity
  8
CSLAYER1
  6
CONTINUOUS
 62
     3
100
AcDbLine
 10
231.6432339999998
 20
380.078324
 30
0.0
 11
231.3432339999998
 21
379.558708
 31
0.0
  0
LINE
  5
5B0
330
1E
100
AcDbEntity
  8
CSLAYER1
  6
CONTINUOUS
 62
     4
100
AcDbLine
 10
231.943234
 20
377.078324
 30
0.0
 11
231.943234
 21
368.2454839999998
 31
0.0
  0
LINE
  5
5B1
330
1E
100
AcDbEntity
  8
CSLAYER1
  6
CONTINUOUS
 62
     4
100
AcDbLine
 10
235.3432339999998
 20
378.678324
 30
0.0
 11
235.3432339999998
 21
380.578324
 31
0.0
  0
LINE
  5
5B2
330
1E
100
AcDbEntity
  8
CSLAYER1
  6
CONTINUOUS
 62
     3
100
AcDbLine
 10
241.1432339999995
 20
340.346274
 30
0.0
 11
241.297934
 21
340.0783239999995
 31
0.0
  0
LINE
  5
5B3
330
1E
100
AcDbEntity
  8
CSLAYER1
  6
DASHED
 62
     4
100
AcDbLine
 10
241.1432339999995
 20
339.810374
 30
0.0
 11
240.7205839999998
 21
339.078324
 31
0.0
  0
LINE
  5
5B4
330
1E
100
AcDbEntity
  8
CSLAYER1
  6
CONTINUOUS
 62
     3
100
AcDbLine
 10
239.1432339999995
 20
339.810374
 30
0.0
 11
238.9885339999998
 21
340.0783239999995
 31
0.0
  0
LINE
  5
5B5
330
1E
100
AcDbEntity
  8
CSLAYER1
  6
DASHED
 62
     4
100
AcDbLine
 10
239.1432339999995
 20
340.346274
 30
0.0
 11
239.5658839999998
 21
341.078324
 31
0.0
  0
POLYLINE
  5
5B6
330
1E
100
AcDbEntity
  8
CSLAYER1
  6
DASHED
 62
     4
100
AcDb2dPolyline
 66
     1
 10
0.0
 20
0.0
 30
0.0
  0
VERTEX
  5
5B7
330
5B6
100
AcDbEntity
  8
CSLAYER1
  6
DASHED
 62
     4
100
AcDbVertex
100
AcDb2dVertex
 10
241.1432339999995
 20
319.653806
 30
0.0
  0
VERTEX
  5
5B8
330
5B6
100
AcDbEntity
  8
CSLAYER1
  6
DASHED
 62
     4
100
AcDbVertex
100
AcDb2dVertex
 10
241.0749159999998
 20
319.6733179999998
 30
0.0
  0
VERTEX
  5
5B9
330
5B6
100
AcDbEntity
  8
CSLAYER1
  6
DASHED
 62
     4
100
AcDbVertex
100
AcDb2dVertex
 10
241.006596
 20
319.6928279999998
 30
0.0
  0
VERTEX
  5
5BA
330
5B6
100
AcDbEntity
  8
CSLAYER1
  6
DASHED
 62
     4
100
AcDbVertex
100
AcDb2dVertex
 10
240.9382779999995
 20
319.7123399999998
 30
0.0
  0
VERTEX
  5
5BB
330
5B6
100
AcDbEntity
  8
CSLAYER1
  6
DASHED
 62
     4
100
AcDbVertex
100
AcDb2dVertex
 10
240.8699579999998
 20
319.7318519999998
 30
0.0
  0
VERTEX
  5
5BC
330
5B6
100
AcDbEntity
  8
CSLAYER1
  6
DASHED
 62
     4
100
AcDbVertex
100
AcDb2dVertex
 10
240.80164
 20
319.751364
 30
0.0
  0
VERTEX
  5
5BD
330
5B6
100
AcDbEntity
  8
CSLAYER1
  6
DASHED
 62
     4
100
AcDbVertex
100
AcDb2dVertex
 10
240.73332
 20
319.770874
 30
0.0
  0
VERTEX
  5
5BE
330
5B6
100
AcDbEntity
  8
CSLAYER1
  6
DASHED
 62
     4
100
AcDbVertex
100
AcDb2dVertex
 10
240.665002
 20
319.790386
 30
0.0
  0
VERTEX
  5
5BF
330
5B6
100
AcDbEntity
  8
CSLAYER1
  6
DASHED
 62
     4
100
AcDbVertex
100
AcDb2dVertex
 10
240.5966819999998
 20
319.8098979999996
 30
0.0
  0
VERTEX
  5
5C0
330
5B6
100
AcDbEntity
  8
CSLAYER1
  6
DASHED
 62
     4
100
AcDbVertex
100
AcDb2dVertex
 10
240.5283639999998
 20
319.82941
 30
0.0
  0
VERTEX
  5
5C1
330
5B6
100
AcDbEntity
  8
CSLAYER1
  6
DASHED
 62
     4
100
AcDbVertex
100
AcDb2dVertex
 10
240.460046
 20
319.84892
 30
0.0
  0
VERTEX
  5
5C2
330
5B6
100
AcDbEntity
  8
CSLAYER1
  6
DASHED
 62
     4
100
AcDbVertex
100
AcDb2dVertex
 10
240.3917259999998
 20
319.8684319999998
 30
0.0
  0
VERTEX
  5
5C3
330
5B6
100
AcDbEntity
  8
CSLAYER1
  6
DASHED
 62
     4
100
AcDbVertex
100
AcDb2dVertex
 10
240.323408
 20
319.887944
 30
0.0
  0
VERTEX
  5
5C4
330
5B6
100
AcDbEntity
  8
CSLAYER1
  6
DASHED
 62
     4
100
AcDbVertex
100
AcDb2dVertex
 10
240.2552259999998
 20
319.9072839999998
 30
0.0
  0
VERTEX
  5
5C5
330
5B6
100
AcDbEntity
  8
CSLAYER1
  6
DASHED
 62
     4
100
AcDbVertex
100
AcDb2dVertex
 10
240.188972
 20
319.9242279999998
 30
0.0
  0
VERTEX
  5
5C6
330
5B6
100
AcDbEntity
  8
CSLAYER1
  6
DASHED
 62
     4
100
AcDbVertex
100
AcDb2dVertex
 10
240.1251939999998
 20
319.9380919999996
 30
0.0
  0
VERTEX
  5
5C7
330
5B6
100
AcDbEntity
  8
CSLAYER1
  6
DASHED
 62
     4
100
AcDbVertex
100
AcDb2dVertex
 10
240.063892
 20
319.948874
 30
0.0
  0
VERTEX
  5
5C8
330
5B6
100
AcDbEntity
  8
CSLAYER1
  6
DASHED
 62
     4
100
AcDbVertex
100
AcDb2dVertex
 10
240.005068
 20
319.956576
 30
0.0
  0
VERTEX
  5
5C9
330
5B6
100
AcDbEntity
  8
CSLAYER1
  6
DASHED
 62
     4
100
AcDbVertex
100
AcDb2dVertex
 10
239.948722
 20
319.961198
 30
0.0
  0
VERTEX
  5
5CA
330
5B6
100
AcDbEntity
  8
CSLAYER1
  6
DASHED
 62
     4
100
AcDbVertex
100
AcDb2dVertex
 10
239.894852
 20
319.9627379999998
 30
0.0
  0
VERTEX
  5
5CB
330
5B6
100
AcDbEntity
  8
CSLAYER1
  6
DASHED
 62
     4
100
AcDbVertex
100
AcDb2dVertex
 10
239.8434579999998
 20
319.961198
 30
0.0
  0
VERTEX
  5
5CC
330
5B6
100
AcDbEntity
  8
CSLAYER1
  6
DASHED
 62
     4
100
AcDbVertex
100
AcDb2dVertex
 10
239.7945419999998
 20
319.956576
 30
0.0
  0
VERTEX
  5
5CD
330
5B6
100
AcDbEntity
  8
CSLAYER1
  6
DASHED
 62
     4
100
AcDbVertex
100
AcDb2dVertex
 10
239.7481019999998
 20
319.948874
 30
0.0
  0
VERTEX
  5
5CE
330
5B6
100
AcDbEntity
  8
CSLAYER1
  6
DASHED
 62
     4
100
AcDbVertex
100
AcDb2dVertex
 10
239.7041399999998
 20
319.9380919999996
 30
0.0
  0
VERTEX
  5
5CF
330
5B6
100
AcDbEntity
  8
CSLAYER1
  6
DASHED
 62
     4
100
AcDbVertex
100
AcDb2dVertex
 10
239.662656
 20
319.9242279999998
 30
0.0
  0
VERTEX
  5
5D0
330
5B6
100
AcDbEntity
  8
CSLAYER1
  6
DASHED
 62
     4
100
AcDbVertex
100
AcDb2dVertex
 10
239.623646
 20
319.9072839999998
 30
0.0
  0
VERTEX
  5
5D1
330
5B6
100
AcDbEntity
  8
CSLAYER1
  6
DASHED
 62
     4
100
AcDbVertex
100
AcDb2dVertex
 10
239.586566
 20
319.887944
 30
0.0
  0
VERTEX
  5
5D2
330
5B6
100
AcDbEntity
  8
CSLAYER1
  6
DASHED
 62
     4
100
AcDbVertex
100
AcDb2dVertex
 10
239.54962
 20
319.8684319999998
 30
0.0
  0
VERTEX
  5
5D3
330
5B6
100
AcDbEntity
  8
CSLAYER1
  6
DASHED
 62
     4
100
AcDbVertex
100
AcDb2dVertex
 10
239.5126759999995
 20
319.84892
 30
0.0
  0
VERTEX
  5
5D4
330
5B6
100
AcDbEntity
  8
CSLAYER1
  6
DASHED
 62
     4
100
AcDbVertex
100
AcDb2dVertex
 10
239.475732
 20
319.82941
 30
0.0
  0
VERTEX
  5
5D5
330
5B6
100
AcDbEntity
  8
CSLAYER1
  6
DASHED
 62
     4
100
AcDbVertex
100
AcDb2dVertex
 10
239.438788
 20
319.8098979999996
 30
0.0
  0
VERTEX
  5
5D6
330
5B6
100
AcDbEntity
  8
CSLAYER1
  6
DASHED
 62
     4
100
AcDbVertex
100
AcDb2dVertex
 10
239.4018439999998
 20
319.790386
 30
0.0
  0
VERTEX
  5
5D7
330
5B6
100
AcDbEntity
  8
CSLAYER1
  6
DASHED
 62
     4
100
AcDbVertex
100
AcDb2dVertex
 10
239.3648999999998
 20
319.770874
 30
0.0
  0
VERTEX
  5
5D8
330
5B6
100
AcDbEntity
  8
CSLAYER1
  6
DASHED
 62
     4
100
AcDbVertex
100
AcDb2dVertex
 10
239.3279559999998
 20
319.751364
 30
0.0
  0
VERTEX
  5
5D9
330
5B6
100
AcDbEntity
  8
CSLAYER1
  6
DASHED
 62
     4
100
AcDbVertex
100
AcDb2dVertex
 10
239.291012
 20
319.7318519999998
 30
0.0
  0
VERTEX
  5
5DA
330
5B6
100
AcDbEntity
  8
CSLAYER1
  6
DASHED
 62
     4
100
AcDbVertex
100
AcDb2dVertex
 10
239.254068
 20
319.7123399999998
 30
0.0
  0
VERTEX
  5
5DB
330
5B6
100
AcDbEntity
  8
CSLAYER1
  6
DASHED
 62
     4
100
AcDbVertex
100
AcDb2dVertex
 10
239.217122
 20
319.6928279999998
 30
0.0
  0
VERTEX
  5
5DC
330
5B6
100
AcDbEntity
  8
CSLAYER1
  6
DASHED
 62
     4
100
AcDbVertex
100
AcDb2dVertex
 10
239.1801779999995
 20
319.6733179999998
 30
0.0
  0
VERTEX
  5
5DD
330
5B6
100
AcDbEntity
  8
CSLAYER1
  6
DASHED
 62
     4
100
AcDbVertex
100
AcDb2dVertex
 10
239.1432339999995
 20
319.653806
 30
0.0
  0
SEQEND
  5
5DE
330
5B6
100
AcDbEntity
  8
CSLAYER1
 62
     4
  0
POLYLINE
  5
5DF
330
1E
100
AcDbEntity
  8
CSLAYER1
  6
CONTINUOUS
 62
     4
100
AcDb2dPolyline
 66
     1
 10
0.0
 20
0.0
 30
0.0
  0
VERTEX
  5
5E0
330
5DF
100
AcDbEntity
  8
CSLAYER1
  6
CONTINUOUS
 62
     4
100
AcDbVertex
100
AcDb2dVertex
 10
231.943234
 20
368.2454839999998
 30
0.0
  0
VERTEX
  5
5E1
330
5DF
100
AcDbEntity
  8
CSLAYER1
  6
CONTINUOUS
 62
     4
100
AcDbVertex
100
AcDb2dVertex
 10
232.011668
 20
368.272912
 30
0.0
  0
VERTEX
  5
5E2
330
5DF
100
AcDbEntity
  8
CSLAYER1
  6
CONTINUOUS
 62
     4
100
AcDbVertex
100
AcDb2dVertex
 10
232.0800999999998
 20
368.30034
 30
0.0
  0
VERTEX
  5
5E3
330
5DF
100
AcDbEntity
  8
CSLAYER1
  6
CONTINUOUS
 62
     4
100
AcDbVertex
100
AcDb2dVertex
 10
232.1485339999998
 20
368.32777
 30
0.0
  0
VERTEX
  5
5E4
330
5DF
100
AcDbEntity
  8
CSLAYER1
  6
CONTINUOUS
 62
     4
100
AcDbVertex
100
AcDb2dVertex
 10
232.216968
 20
368.3551979999999
 30
0.0
  0
VERTEX
  5
5E5
330
5DF
100
AcDbEntity
  8
CSLAYER1
  6
CONTINUOUS
 62
     4
100
AcDbVertex
100
AcDb2dVertex
 10
232.2853999999998
 20
368.3826259999998
 30
0.0
  0
VERTEX
  5
5E6
330
5DF
100
AcDbEntity
  8
CSLAYER1
  6
CONTINUOUS
 62
     4
100
AcDbVertex
100
AcDb2dVertex
 10
232.3538339999998
 20
368.410054
 30
0.0
  0
VERTEX
  5
5E7
330
5DF
100
AcDbEntity
  8
CSLAYER1
  6
CONTINUOUS
 62
     4
100
AcDbVertex
100
AcDb2dVertex
 10
232.422266
 20
368.4374819999999
 30
0.0
  0
VERTEX
  5
5E8
330
5DF
100
AcDbEntity
  8
CSLAYER1
  6
CONTINUOUS
 62
     4
100
AcDbVertex
100
AcDb2dVertex
 10
232.4907
 20
368.464912
 30
0.0
  0
VERTEX
  5
5E9
330
5DF
100
AcDbEntity
  8
CSLAYER1
  6
CONTINUOUS
 62
     4
100
AcDbVertex
100
AcDb2dVertex
 10
232.559132
 20
368.49234
 30
0.0
  0
VERTEX
  5
5EA
330
5DF
100
AcDbEntity
  8
CSLAYER1
  6
CONTINUOUS
 62
     4
100
AcDbVertex
100
AcDb2dVertex
 10
232.6275659999998
 20
368.5197679999998
 30
0.0
  0
VERTEX
  5
5EB
330
5DF
100
AcDbEntity
  8
CSLAYER1
  6
CONTINUOUS
 62
     4
100
AcDbVertex
100
AcDb2dVertex
 10
232.696
 20
368.547196
 30
0.0
  0
VERTEX
  5
5EC
330
5DF
100
AcDbEntity
  8
CSLAYER1
  6
CONTINUOUS
 62
     4
100
AcDbVertex
100
AcDb2dVertex
 10
232.7644319999995
 20
368.574624
 30
0.0
  0
VERTEX
  5
5ED
330
5DF
100
AcDbEntity
  8
CSLAYER1
  6
CONTINUOUS
 62
     4
100
AcDbVertex
100
AcDb2dVertex
 10
232.832866
 20
368.602054
 30
0.0
  0
VERTEX
  5
5EE
330
5DF
100
AcDbEntity
  8
CSLAYER1
  6
CONTINUOUS
 62
     4
100
AcDbVertex
100
AcDb2dVertex
 10
232.9012979999998
 20
368.629482
 30
0.0
  0
VERTEX
  5
5EF
330
5DF
100
AcDbEntity
  8
CSLAYER1
  6
CONTINUOUS
 62
     4
100
AcDbVertex
100
AcDb2dVertex
 10
232.969588
 20
368.655272
 30
0.0
  0
VERTEX
  5
5F0
330
5DF
100
AcDbEntity
  8
CSLAYER1
  6
CONTINUOUS
 62
     4
100
AcDbVertex
100
AcDb2dVertex
 10
233.0373779999998
 20
368.675418
 30
0.0
  0
VERTEX
  5
5F1
330
5DF
100
AcDbEntity
  8
CSLAYER1
  6
CONTINUOUS
 62
     4
100
AcDbVertex
100
AcDb2dVertex
 10
233.104654
 20
368.6897399999998
 30
0.0
  0
VERTEX
  5
5F2
330
5DF
100
AcDbEntity
  8
CSLAYER1
  6
CONTINUOUS
 62
     4
100
AcDbVertex
100
AcDb2dVertex
 10
233.171418
 20
368.698236
 30
0.0
  0
VERTEX
  5
5F3
330
5DF
100
AcDbEntity
  8
CSLAYER1
  6
CONTINUOUS
 62
     4
100
AcDbVertex
100
AcDb2dVertex
 10
233.237666
 20
368.7009079999998
 30
0.0
  0
VERTEX
  5
5F4
330
5DF
100
AcDbEntity
  8
CSLAYER1
  6
CONTINUOUS
 62
     4
100
AcDbVertex
100
AcDb2dVertex
 10
233.3034019999998
 20
368.6977519999998
 30
0.0
  0
VERTEX
  5
5F5
330
5DF
100
AcDbEntity
  8
CSLAYER1
  6
CONTINUOUS
 62
     4
100
AcDbVertex
100
AcDb2dVertex
 10
233.368622
 20
368.688774
 30
0.0
  0
VERTEX
  5
5F6
330
5DF
100
AcDbEntity
  8
CSLAYER1
  6
CONTINUOUS
 62
     4
100
AcDbVertex
100
AcDb2dVertex
 10
233.4333299999998
 20
368.673968
 30
0.0
  0
VERTEX
  5
5F7
330
5DF
100
AcDbEntity
  8
CSLAYER1
  6
CONTINUOUS
 62
     4
100
AcDbVertex
100
AcDb2dVertex
 10
233.497522
 20
368.6533379999998
 30
0.0
  0
VERTEX
  5
5F8
330
5DF
100
AcDbEntity
  8
CSLAYER1
  6
CONTINUOUS
 62
     4
100
AcDbVertex
100
AcDb2dVertex
 10
233.561202
 20
368.6268819999998
 30
0.0
  0
VERTEX
  5
5F9
330
5DF
100
AcDbEntity
  8
CSLAYER1
  6
CONTINUOUS
 62
     4
100
AcDbVertex
100
AcDb2dVertex
 10
233.624366
 20
368.594602
 30
0.0
  0
VERTEX
  5
5FA
330
5DF
100
AcDbEntity
  8
CSLAYER1
  6
CONTINUOUS
 62
     4
100
AcDbVertex
100
AcDb2dVertex
 10
233.687018
 20
368.5564959999998
 30
0.0
  0
VERTEX
  5
5FB
330
5DF
100
AcDbEntity
  8
CSLAYER1
  6
CONTINUOUS
 62
     4
100
AcDbVertex
100
AcDb2dVertex
 10
233.749154
 20
368.512566
 30
0.0
  0
VERTEX
  5
5FC
330
5DF
100
AcDbEntity
  8
CSLAYER1
  6
CONTINUOUS
 62
     4
100
AcDbVertex
100
AcDb2dVertex
 10
233.8107779999995
 20
368.4628079999998
 30
0.0
  0
VERTEX
  5
5FD
330
5DF
100
AcDbEntity
  8
CSLAYER1
  6
CONTINUOUS
 62
     4
100
AcDbVertex
100
AcDb2dVertex
 10
233.8721819999998
 20
368.408616
 30
0.0
  0
VERTEX
  5
5FE
330
5DF
100
AcDbEntity
  8
CSLAYER1
  6
CONTINUOUS
 62
     4
100
AcDbVertex
100
AcDb2dVertex
 10
233.93513
 20
368.3583259999998
 30
0.0
  0
VERTEX
  5
5FF
330
5DF
100
AcDbEntity
  8
CSLAYER1
  6
CONTINUOUS
 62
     4
100
AcDbVertex
100
AcDb2dVertex
 10
233.9999179999998
 20
368.3133259999998
 30
0.0
  0
VERTEX
  5
600
330
5DF
100
AcDbEntity
  8
CSLAYER1
  6
CONTINUOUS
 62
     4
100
AcDbVertex
100
AcDb2dVertex
 10
234.0665439999998
 20
368.2736179999998
 30
0.0
  0
VERTEX
  5
601
330
5DF
100
AcDbEntity
  8
CSLAYER1
  6
CONTINUOUS
 62
     4
100
AcDbVertex
100
AcDb2dVertex
 10
234.13501
 20
368.2392
 30
0.0
  0
VERTEX
  5
602
330
5DF
100
AcDbEntity
  8
CSLAYER1
  6
CONTINUOUS
 62
     4
100
AcDbVertex
100
AcDb2dVertex
 10
234.205316
 20
368.2100739999998
 30
0.0
  0
VERTEX
  5
603
330
5DF
100
AcDbEntity
  8
CSLAYER1
  6
CONTINUOUS
 62
     4
100
AcDbVertex
100
AcDb2dVertex
 10
234.27746
 20
368.186238
 30
0.0
  0
VERTEX
  5
604
330
5DF
100
AcDbEntity
  8
CSLAYER1
  6
CONTINUOUS
 62
     4
100
AcDbVertex
100
AcDb2dVertex
 10
234.3514439999998
 20
368.1676939999998
 30
0.0
  0
VERTEX
  5
605
330
5DF
100
AcDbEntity
  8
CSLAYER1
  6
CONTINUOUS
 62
     4
100
AcDbVertex
100
AcDb2dVertex
 10
234.427268
 20
368.154442
 30
0.0
  0
VERTEX
  5
606
330
5DF
100
AcDbEntity
  8
CSLAYER1
  6
CONTINUOUS
 62
     4
100
AcDbVertex
100
AcDb2dVertex
 10
234.5049299999998
 20
368.14648
 30
0.0
  0
VERTEX
  5
607
330
5DF
100
AcDbEntity
  8
CSLAYER1
  6
CONTINUOUS
 62
     4
100
AcDbVertex
100
AcDb2dVertex
 10
234.5844319999998
 20
368.143808
 30
0.0
  0
VERTEX
  5
608
330
5DF
100
AcDbEntity
  8
CSLAYER1
  6
CONTINUOUS
 62
     4
100
AcDbVertex
100
AcDb2dVertex
 10
234.665774
 20
368.1464279999998
 30
0.0
  0
VERTEX
  5
609
330
5DF
100
AcDbEntity
  8
CSLAYER1
  6
CONTINUOUS
 62
     4
100
AcDbVertex
100
AcDb2dVertex
 10
234.748954
 20
368.1543399999998
 30
0.0
  0
VERTEX
  5
60A
330
5DF
100
AcDbEntity
  8
CSLAYER1
  6
CONTINUOUS
 62
     4
100
AcDbVertex
100
AcDb2dVertex
 10
234.833974
 20
368.1675419999998
 30
0.0
  0
VERTEX
  5
60B
330
5DF
100
AcDbEntity
  8
CSLAYER1
  6
CONTINUOUS
 62
     4
100
AcDbVertex
100
AcDb2dVertex
 10
234.920774
 20
368.18587
 30
0.0
  0
VERTEX
  5
60C
330
5DF
100
AcDbEntity
  8
CSLAYER1
  6
CONTINUOUS
 62
     4
100
AcDbVertex
100
AcDb2dVertex
 10
235.0080919999998
 20
368.205686
 30
0.0
  0
VERTEX
  5
60D
330
5DF
100
AcDbEntity
  8
CSLAYER1
  6
CONTINUOUS
 62
     4
100
AcDbVertex
100
AcDb2dVertex
 10
235.095412
 20
368.2255019999998
 30
0.0
  0
VERTEX
  5
60E
330
5DF
100
AcDbEntity
  8
CSLAYER1
  6
CONTINUOUS
 62
     4
100
AcDbVertex
100
AcDb2dVertex
 10
235.18273
 20
368.2453179999998
 30
0.0
  0
VERTEX
  5
60F
330
5DF
100
AcDbEntity
  8
CSLAYER1
  6
CONTINUOUS
 62
     4
100
AcDbVertex
100
AcDb2dVertex
 10
235.270048
 20
368.2651339999998
 30
0.0
  0
VERTEX
  5
610
330
5DF
100
AcDbEntity
  8
CSLAYER1
  6
CONTINUOUS
 62
     4
100
AcDbVertex
100
AcDb2dVertex
 10
235.357368
 20
368.2849499999998
 30
0.0
  0
VERTEX
  5
611
330
5DF
100
AcDbEntity
  8
CSLAYER1
  6
CONTINUOUS
 62
     4
100
AcDbVertex
100
AcDb2dVertex
 10
235.4446859999998
 20
368.304766
 30
0.0
  0
VERTEX
  5
612
330
5DF
100
AcDbEntity
  8
CSLAYER1
  6
CONTINUOUS
 62
     4
100
AcDbVertex
100
AcDb2dVertex
 10
235.532004
 20
368.3245819999998
 30
0.0
  0
VERTEX
  5
613
330
5DF
100
AcDbEntity
  8
CSLAYER1
  6
CONTINUOUS
 62
     4
100
AcDbVertex
100
AcDb2dVertex
 10
235.619322
 20
368.344398
 30
0.0
  0
VERTEX
  5
614
330
5DF
100
AcDbEntity
  8
CSLAYER1
  6
CONTINUOUS
 62
     4
100
AcDbVertex
100
AcDb2dVertex
 10
235.7066419999998
 20
368.3642139999998
 30
0.0
  0
VERTEX
  5
615
330
5DF
100
AcDbEntity
  8
CSLAYER1
  6
CONTINUOUS
 62
     4
100
AcDbVertex
100
AcDb2dVertex
 10
235.7939599999998
 20
368.3840299999998
 30
0.0
  0
VERTEX
  5
616
330
5DF
100
AcDbEntity
  8
CSLAYER1
  6
CONTINUOUS
 62
     4
100
AcDbVertex
100
AcDb2dVertex
 10
235.881278
 20
368.403846
 30
0.0
  0
VERTEX
  5
617
330
5DF
100
AcDbEntity
  8
CSLAYER1
  6
CONTINUOUS
 62
     4
100
AcDbVertex
100
AcDb2dVertex
 10
235.968598
 20
368.423662
 30
0.0
  0
VERTEX
  5
618
330
5DF
100
AcDbEntity
  8
CSLAYER1
  6
CONTINUOUS
 62
     4
100
AcDbVertex
100
AcDb2dVertex
 10
236.055916
 20
368.4434799999998
 30
0.0
  0
VERTEX
  5
619
330
5DF
100
AcDbEntity
  8
CSLAYER1
  6
CONTINUOUS
 62
     4
100
AcDbVertex
100
AcDb2dVertex
 10
236.1432339999998
 20
368.463296
 30
0.0
  0
SEQEND
  5
61A
330
5DF
100
AcDbEntity
  8
CSLAYER1
 62
     4
  0
LINE
  5
61B
330
1E
100
AcDbEntity
  8
CSLAYER1
  6
CONTINUOUS
 62
     3
100
AcDbLine
 10
220.1432339999995
 20
265.578324
 30
0.0
 11
220.1432339999995
 21
370.578324
 31
0.0
  0
LINE
  5
61C
330
1E
100
AcDbEntity
  8
CSLAYER1
  6
CONTINUOUS
 62
     3
100
AcDbLine
 10
249.7432339999998
 20
334.078324
 30
0.0
 11
249.7432339999998
 21
287.578324
 31
0.0
  0
LINE
  5
61D
330
1E
100
AcDbEntity
  8
CSLAYER1
  6
CONTINUOUS
 62
     3
100
AcDbLine
 10
228.1432339999998
 20
370.578324
 30
0.0
 11
228.1432339999998
 21
287.578324
 31
0.0
  0
INSERT
  5
61E
330
1E
100
AcDbEntity
  8
CSLAYER1
100
AcDbBlockReference
  2
BLKF0012
 10
0.0
 20
0.0
 30
0.0
 41
2.0
 42
2.0
 43
2.0
  0
LINE
  5
61F
330
1E
100
AcDbEntity
  8
CSLAYER1
  6
CONTINUOUS
 62
     3
100
AcDbLine
 10
390.249824
 20
364.0575979999998
 30
0.0
 11
387.3624299999998
 21
364.0575979999998
 31
0.0
  0
LINE
  5
620
330
1E
100
AcDbEntity
  8
CSLAYER1
  6
CONTINUOUS
 62
     3
100
AcDbLine
 10
390.249824
 20
368.09905
 30
0.0
 11
387.3624299999998
 21
368.09905
 31
0.0
  0
ARC
  5
621
330
1E
100
AcDbEntity
  8
CSLAYER1
  6
CONTINUOUS
 62
     3
100
AcDbCircle
 10
393.7372159999998
 20
366.078324
 30
0.0
 40
6.687392
100
AcDbArc
 50
162.412046
 51
197.5879539999999
  0
LINE
  5
622
330
1E
100
AcDbEntity
  8
CSLAYER1
  6
CONTINUOUS
 62
     3
100
AcDbLine
 10
421.249824
 20
334.378324
 30
0.0
 11
421.249824
 21
335.578324
 31
0.0
  0
LINE
  5
623
330
1E
100
AcDbEntity
  8
CSLAYER1
  6
CONTINUOUS
 62
     3
100
AcDbLine
 10
411.749824
 20
335.578324
 30
0.0
 11
411.749824
 21
334.378324
 31
0.0
  0
LINE
  5
624
330
1E
100
AcDbEntity
  8
CSLAYER1
  6
CONTINUOUS
 62
     3
100
AcDbLine
 10
399.749824
 20
335.578324
 30
0.0
 11
399.749824
 21
334.378324
 31
0.0
  0
LINE
  5
62A
330
1E
100
AcDbEntity
  8
CSLAYER1
  6
CONTINUOUS
 62
     3
100
AcDbLine
 10
600.210308
 20
415.5783239999998
 30
0.0
 11
608.210308
 21
415.5783239999998
 31
0.0
  0
LINE
  5
62B
330
1E
100
AcDbEntity
  8
CSLAYER1
  6
DOT
 62
     3
100
AcDbLine
 10
20.000004
 20
5.999998
 30
0.0
 11
790.000004
 21
5.999998
 31
0.0
  0
LINE
  5
62C
330
1E
100
AcDbEntity
  8
CSLAYER1
  6
DOT
 62
     3
100
AcDbLine
 10
790.000004
 20
5.999998
 30
0.0
 11
790.000004
 21
549.999998
 31
0.0
  0
LINE
  5
62D
330
1E
100
AcDbEntity
  8
CSLAYER1
  6
DOT
 62
     3
100
AcDbLine
 10
790.000004
 20
549.999998
 30
0.0
 11
20.000004
 21
549.999998
 31
0.0
  0
LINE
  5
62E
330
1E
100
AcDbEntity
  8
CSLAYER1
  6
DOT
 62
     3
100
AcDbLine
 10
20.000004
 20
549.999998
 30
0.0
 11
20.000004
 21
5.999998
 31
0.0
  0
TEXT
  5
680
330
1E
100
AcDbEntity
  8
CSLAYER1
 62
     4
100
AcDbText
 10
113.220862
 20
400.6127919999998
 30
0.0
 40
6.4
  1
0.5
 41
1.124999999999999
 51
15.0
  7
FX_FONT
 72
     5
 11
132.420862
 21
400.6127919999998
 31
0.0
100
AcDbText
  0
LINE
  5
681
330
1E
100
AcDbEntity
  8
CSLAYER1
 62
     4
100
AcDbLine
 10
102.122414
 20
399.248378
 30
0.0
 11
104.622414
 21
399.248378
 31
0.0
  0
LINE
  5
682
330
1E
100
AcDbEntity
  8
CSLAYER1
 62
     4
100
AcDbLine
 10
104.622414
 20
392.7141779999998
 30
0.0
 11
104.622414
 21
401.248378
 31
0.0
  0
LINE
  5
683
330
1E
100
AcDbEntity
  8
CSLAYER1
 62
     4
100
AcDbLine
 10
102.122414
 20
368.28216
 30
0.0
 11
102.122414
 21
401.248378
 31
0.0
  0
LINE
  5
684
330
1E
100
AcDbEntity
  8
CSLAYER1
 62
     4
100
AcDbLine
 10
104.622414
 20
399.248378
 30
0.0
 11
116.6224139999999
 21
399.248378
 31
0.0
  0
LINE
  5
685
330
1E
100
AcDbEntity
  8
CSLAYER1
 62
     4
100
AcDbLine
 10
104.622414
 20
399.248378
 30
0.0
 11
110.4179699999999
 21
400.8012919999998
 31
0.0
  0
LINE
  5
686
330
1E
100
AcDbEntity
  8
CSLAYER1
 62
     4
100
AcDbLine
 10
104.622414
 20
399.248378
 30
0.0
 11
110.4179699999999
 21
397.695464
 31
0.0
  0
LINE
  5
687
330
1E
100
AcDbEntity
  8
CSLAYER1
 62
     4
100
AcDbLine
 10
90.122414
 20
399.248378
 30
0.0
 11
102.122414
 21
399.248378
 31
0.0
  0
LINE
  5
688
330
1E
100
AcDbEntity
  8
CSLAYER1
 62
     4
100
AcDbLine
 10
102.122414
 20
399.248378
 30
0.0
 11
96.32685999999999
 21
400.8012919999998
 31
0.0
  0
LINE
  5
689
330
1E
100
AcDbEntity
  8
CSLAYER1
 62
     4
100
AcDbLine
 10
102.122414
 20
399.248378
 30
0.0
 11
96.32685999999999
 21
397.695464
 31
0.0
  0
TEXT
  5
68A
330
1E
100
AcDbEntity
  8
CSLAYER1
 62
     4
100
AcDbText
 10
71.646534
 20
357.718812
 30
0.0
 40
6.4
  1
0.15
 41
1.09090909090909
 51
15.0
  7
FX_FONT
 72
     5
 11
97.24653400000001
 21
357.718812
 31
0.0
100
AcDbText
  0
LINE
  5
68B
330
1E
100
AcDbEntity
  8
CSLAYER1
 62
     4
100
AcDbLine
 10
103.872414
 20
354.819408
 30
0.0
 11
104.622414
 21
354.819408
 31
0.0
  0
LINE
  5
68C
330
1E
100
AcDbEntity
  8
CSLAYER1
 62
     4
100
AcDbLine
 10
104.622414
 20
364.28216
 30
0.0
 11
104.622414
 21
352.819408
 31
0.0
  0
LINE
  5
68D
330
1E
100
AcDbEntity
  8
CSLAYER1
 62
     4
100
AcDbLine
 10
103.872414
 20
346.8003439999999
 30
0.0
 11
103.872414
 21
356.8194079999998
 31
0.0
  0
LINE
  5
68E
330
1E
100
AcDbEntity
  8
CSLAYER1
 62
     4
100
AcDbLine
 10
104.622414
 20
354.819408
 30
0.0
 11
116.6224139999999
 21
354.819408
 31
0.0
  0
LINE
  5
68F
330
1E
100
AcDbEntity
  8
CSLAYER1
 62
     4
100
AcDbLine
 10
104.622414
 20
354.819408
 30
0.0
 11
110.4179699999999
 21
356.3723219999998
 31
0.0
  0
LINE
  5
690
330
1E
100
AcDbEntity
  8
CSLAYER1
 62
     4
100
AcDbLine
 10
104.622414
 20
354.819408
 30
0.0
 11
110.4179699999999
 21
353.2664939999998
 31
0.0
  0
LINE
  5
691
330
1E
100
AcDbEntity
  8
CSLAYER1
 62
     4
100
AcDbLine
 10
91.87241400000001
 20
354.819408
 30
0.0
 11
103.872414
 21
354.819408
 31
0.0
  0
LINE
  5
692
330
1E
100
AcDbEntity
  8
CSLAYER1
 62
     4
100
AcDbLine
 10
103.872414
 20
354.819408
 30
0.0
 11
98.07686
 21
356.3723219999998
 31
0.0
  0
LINE
  5
693
330
1E
100
AcDbEntity
  8
CSLAYER1
 62
     4
100
AcDbLine
 10
103.872414
 20
354.819408
 30
0.0
 11
98.07686
 21
353.2664939999998
 31
0.0
  0
TEXT
  5
694
330
1E
100
AcDbEntity
  8
CSLAYER1
 62
     4
100
AcDbText
 10
72.18209
 20
330.200354
 30
0.0
 40
6.4
  1
（2）
 50
90.0
 41
1.153846153846142
 51
15.0
  7
FX_FONT
 72
     5
 11
72.18209
 21
349.4003539999998
 31
0.0
100
AcDbText
  0
LINE
  5
695
330
1E
100
AcDbEntity
  8
CSLAYER1
 62
     4
100
AcDbLine
 10
74.725026
 20
334.8003439999998
 30
0.0
 11
74.725026
 21
344.8003439999998
 31
0.0
  0
LINE
  5
696
330
1E
100
AcDbEntity
  8
CSLAYER1
 62
     4
100
AcDbLine
 10
96.55532
 20
334.8003439999998
 30
0.0
 11
72.725026
 21
334.8003439999998
 31
0.0
  0
LINE
  5
697
330
1E
100
AcDbEntity
  8
CSLAYER1
 62
     4
100
AcDbLine
 10
101.872414
 20
344.8003439999998
 30
0.0
 11
72.725026
 21
344.8003439999998
 31
0.0
  0
LINE
  5
698
330
1E
100
AcDbEntity
  8
CSLAYER1
 62
     4
100
AcDbLine
 10
74.725026
 20
322.800344
 30
0.0
 11
74.725026
 21
334.8003439999998
 31
0.0
  0
LINE
  5
699
330
1E
100
AcDbEntity
  8
CSLAYER1
 62
     4
100
AcDbLine
 10
74.725026
 20
334.8003439999998
 30
0.0
 11
73.172112
 21
329.0047879999998
 31
0.0
  0
LINE
  5
69A
330
1E
100
AcDbEntity
  8
CSLAYER1
 62
     4
100
AcDbLine
 10
74.725026
 20
334.8003439999998
 30
0.0
 11
76.27794
 21
329.0047879999998
 31
0.0
  0
LINE
  5
69B
330
1E
100
AcDbEntity
  8
CSLAYER1
 62
     4
100
AcDbLine
 10
74.725026
 20
344.8003439999998
 30
0.0
 11
74.725026
 21
356.800344
 31
0.0
  0
LINE
  5
69C
330
1E
100
AcDbEntity
  8
CSLAYER1
 62
     4
100
AcDbLine
 10
74.725026
 20
344.8003439999998
 30
0.0
 11
73.172112
 21
350.5958979999998
 31
0.0
  0
LINE
  5
69D
330
1E
100
AcDbEntity
  8
CSLAYER1
 62
     4
100
AcDbLine
 10
74.725026
 20
344.8003439999998
 30
0.0
 11
76.27794
 21
350.5958979999998
 31
0.0
  0
TEXT
  5
69E
330
1E
100
AcDbEntity
  8
CSLAYER1
 62
     4
100
AcDbText
 10
135.8520199999999
 20
343.634766
 30
0.0
 40
6.4
  1
（0.5）
 50
90.0
 41
1.08695652173913
 51
15.0
  7
FX_FONT
 72
     5
 11
135.8520199999999
 21
375.634766
 31
0.0
100
AcDbText
  0
LINE
  5
69F
330
1E
100
AcDbEntity
  8
CSLAYER1
 62
     4
100
AcDbLine
 10
137.796344
 20
342.300344
 30
0.0
 11
137.796344
 21
344.8003439999998
 31
0.0
  0
LINE
  5
6A0
330
1E
100
AcDbEntity
  8
CSLAYER1
 62
     4
100
AcDbLine
 10
105.8724139999999
 20
342.300344
 30
0.0
 11
139.796344
 21
342.300344
 31
0.0
  0
LINE
  5
6A1
330
1E
100
AcDbEntity
  8
CSLAYER1
 62
     4
100
AcDbLine
 10
137.796344
 20
330.3003439999998
 30
0.0
 11
137.796344
 21
342.300344
 31
0.0
  0
LINE
  5
6A2
330
1E
100
AcDbEntity
  8
CSLAYER1
 62
     4
100
AcDbLine
 10
137.796344
 20
342.300344
 30
0.0
 11
136.24343
 21
336.5047879999996
 31
0.0
  0
LINE
  5
6A3
330
1E
100
AcDbEntity
  8
CSLAYER1
 62
     4
100
AcDbLine
 10
137.796344
 20
342.300344
 30
0.0
 11
139.349258
 21
336.5047879999996
 31
0.0
  0
LINE
  5
6A4
330
1E
100
AcDbEntity
  8
CSLAYER1
 62
     4
100
AcDbLine
 10
137.796344
 20
344.8003439999998
 30
0.0
 11
137.796344
 21
373.5227439999998
 31
0.0
  0
LINE
  5
6A5
330
1E
100
AcDbEntity
  8
CSLAYER1
 62
     4
100
AcDbLine
 10
137.796344
 20
344.8003439999998
 30
0.0
 11
136.24343
 21
350.5958979999998
 31
0.0
  0
LINE
  5
6A6
330
1E
100
AcDbEntity
  8
CSLAYER1
 62
     4
100
AcDbLine
 10
137.796344
 20
344.8003439999998
 30
0.0
 11
139.349258
 21
350.5958979999998
 31
0.0
  0
TEXT
  5
6A7
330
1E
100
AcDbEntity
  8
CSLAYER1
 62
     4
100
AcDbText
 10
146.684646
 20
314.19226
 30
0.0
 40
6.4
  1
（5.5）
 50
90.0
 41
1.08695652173913
 51
15.0
  7
FX_FONT
 72
     5
 11
146.684646
 21
346.19226
 31
0.0
100
AcDbText
  0
LINE
  5
6A8
330
1E
100
AcDbEntity
  8
CSLAYER1
 62
     4
100
AcDbLine
 10
149.796344
 20
317.300344
 30
0.0
 11
149.796344
 21
344.8003439999998
 31
0.0
  0
LINE
  5
6A9
330
1E
100
AcDbEntity
  8
CSLAYER1
 62
     4
100
AcDbLine
 10
149.796344
 20
317.300344
 30
0.0
 11
148.24343
 21
323.095898
 31
0.0
  0
LINE
  5
6AA
330
1E
100
AcDbEntity
  8
CSLAYER1
 62
     4
100
AcDbLine
 10
149.796344
 20
317.300344
 30
0.0
 11
151.349258
 21
323.095898
 31
0.0
  0
LINE
  5
6AB
330
1E
100
AcDbEntity
  8
CSLAYER1
 62
     4
100
AcDbLine
 10
149.796344
 20
344.8003439999998
 30
0.0
 11
148.24343
 21
339.0047879999996
 31
0.0
  0
LINE
  5
6AC
330
1E
100
AcDbEntity
  8
CSLAYER1
 62
     4
100
AcDbLine
 10
149.796344
 20
344.8003439999998
 30
0.0
 11
151.349258
 21
339.0047879999996
 31
0.0
  0
LINE
  5
6AD
330
1E
100
AcDbEntity
  8
CSLAYER1
 62
     4
100
AcDbLine
 10
105.8724139999999
 20
317.300344
 30
0.0
 11
151.796344
 21
317.300344
 31
0.0
  0
LINE
  5
6AE
330
1E
100
AcDbEntity
  8
CSLAYER1
 62
     4
100
AcDbLine
 10
105.8724139999999
 20
344.8003439999998
 30
0.0
 11
151.796344
 21
344.8003439999998
 31
0.0
  0
TEXT
  5
6AF
330
1E
100
AcDbEntity
  8
CSLAYER1
 62
     4
100
AcDbText
 10
221.7432339999998
 20
446.1055299999999
 30
0.0
 40
6.4
  1
16
 41
1.200000000000001
 51
15.0
  7
FX_FONT
 72
     5
 11
234.5432339999998
 21
446.1055299999999
 31
0.0
100
AcDbText
  0
LINE
  5
6B0
330
1E
100
AcDbEntity
  8
CSLAYER1
 62
     4
100
AcDbLine
 10
220.1432339999995
 20
444.105536
 30
0.0
 11
236.1432339999998
 21
444.105536
 31
0.0
  0
LINE
  5
6B1
330
1E
100
AcDbEntity
  8
CSLAYER1
 62
     4
100
AcDbLine
 10
220.1432339999995
 20
444.105536
 30
0.0
 11
225.9387899999998
 21
445.6584499999998
 31
0.0
  0
LINE
  5
6B2
330
1E
100
AcDbEntity
  8
CSLAYER1
 62
     4
100
AcDbLine
 10
220.1432339999995
 20
444.105536
 30
0.0
 11
225.9387899999998
 21
442.55262
 31
0.0
  0
LINE
  5
6B3
330
1E
100
AcDbEntity
  8
CSLAYER1
 62
     4
100
AcDbLine
 10
236.1432339999998
 20
444.105536
 30
0.0
 11
230.3476799999998
 21
445.6584499999998
 31
0.0
  0
LINE
  5
6B4
330
1E
100
AcDbEntity
  8
CSLAYER1
 62
     4
100
AcDbLine
 10
236.1432339999998
 20
444.105536
 30
0.0
 11
230.3476799999998
 21
442.55262
 31
0.0
  0
LINE
  5
6B5
330
1E
100
AcDbEntity
  8
CSLAYER1
 62
     4
100
AcDbLine
 10
220.1432339999995
 20
372.578324
 30
0.0
 11
220.1432339999995
 21
446.105536
 31
0.0
  0
LINE
  5
6B6
330
1E
100
AcDbEntity
  8
CSLAYER1
 62
     4
100
AcDbLine
 10
236.1432339999998
 20
422.578324
 30
0.0
 11
236.1432339999998
 21
446.105536
 31
0.0
  0
TEXT
  5
6B7
330
1E
100
AcDbEntity
  8
CSLAYER1
 62
     4
100
AcDbText
 10
241.7432339999998
 20
446.1055299999999
 30
0.0
 40
6.4
  1
24
 41
1.200000000000017
 51
15.0
  7
FX_FONT
 72
     5
 11
254.543234
 21
446.1055299999999
 31
0.0
100
AcDbText
  0
LINE
  5
6B8
330
1E
100
AcDbEntity
  8
CSLAYER1
 62
     4
100
AcDbLine
 10
236.1432339999998
 20
444.105536
 30
0.0
 11
260.143234
 21
444.105536
 31
0.0
  0
LINE
  5
6B9
330
1E
100
AcDbEntity
  8
CSLAYER1
 62
     4
100
AcDbLine
 10
236.1432339999998
 20
444.105536
 30
0.0
 11
241.9387899999998
 21
445.6584499999998
 31
0.0
  0
LINE
  5
6BA
330
1E
100
AcDbEntity
  8
CSLAYER1
 62
     4
100
AcDbLine
 10
236.1432339999998
 20
444.105536
 30
0.0
 11
241.9387899999998
 21
442.55262
 31
0.0
  0
LINE
  5
6BB
330
1E
100
AcDbEntity
  8
CSLAYER1
 62
     4
100
AcDbLine
 10
260.143234
 20
444.105536
 30
0.0
 11
254.3476799999995
 21
445.6584499999998
 31
0.0
  0
LINE
  5
6BC
330
1E
100
AcDbEntity
  8
CSLAYER1
 62
     4
100
AcDbLine
 10
260.143234
 20
444.105536
 30
0.0
 11
254.3476799999995
 21
442.55262
 31
0.0
  0
LINE
  5
6BD
330
1E
100
AcDbEntity
  8
CSLAYER1
 62
     4
100
AcDbLine
 10
260.143234
 20
327.5783239999995
 30
0.0
 11
260.143234
 21
446.105536
 31
0.0
  0
TEXT
  5
6BE
330
1E
100
AcDbEntity
  8
CSLAYER1
 62
     4
100
AcDbText
 10
236.9432339999998
 20
434.1055299999998
 30
0.0
 40
6.4
  1
8
 41
1.499999999999994
 51
15.0
  7
FX_FONT
 72
     5
 11
243.3432339999998
 21
434.1055299999998
 31
0.0
100
AcDbText
  0
LINE
  5
6BF
330
1E
100
AcDbEntity
  8
CSLAYER1
 62
     4
100
AcDbLine
 10
236.1432339999998
 20
432.105536
 30
0.0
 11
244.1432339999998
 21
432.105536
 31
0.0
  0
LINE
  5
6C0
330
1E
100
AcDbEntity
  8
CSLAYER1
 62
     4
100
AcDbLine
 10
244.1432339999998
 20
422.578324
 30
0.0
 11
244.1432339999998
 21
434.105536
 31
0.0
  0
LINE
  5
6C1
330
1E
100
AcDbEntity
  8
CSLAYER1
 62
     4
100
AcDbLine
 10
224.1432339999998
 20
432.105536
 30
0.0
 11
236.1432339999998
 21
432.105536
 31
0.0
  0
LINE
  5
6C2
330
1E
100
AcDbEntity
  8
CSLAYER1
 62
     4
100
AcDbLine
 10
236.1432339999998
 20
432.105536
 30
0.0
 11
230.3476799999998
 21
433.6584499999998
 31
0.0
  0
LINE
  5
6C3
330
1E
100
AcDbEntity
  8
CSLAYER1
 62
     4
100
AcDbLine
 10
236.1432339999998
 20
432.105536
 30
0.0
 11
230.3476799999998
 21
430.55262
 31
0.0
  0
LINE
  5
6C4
330
1E
100
AcDbEntity
  8
CSLAYER1
 62
     4
100
AcDbLine
 10
244.1432339999998
 20
432.105536
 30
0.0
 11
256.143234
 21
432.105536
 31
0.0
  0
LINE
  5
6C5
330
1E
100
AcDbEntity
  8
CSLAYER1
 62
     4
100
AcDbLine
 10
244.1432339999998
 20
432.105536
 30
0.0
 11
249.9387899999998
 21
433.6584499999998
 31
0.0
  0
LINE
  5
6C6
330
1E
100
AcDbEntity
  8
CSLAYER1
 62
     4
100
AcDbLine
 10
244.1432339999998
 20
432.105536
 30
0.0
 11
249.9387899999998
 21
430.55262
 31
0.0
  0
TEXT
  5
6C7
330
1E
100
AcDbEntity
  8
CSLAYER1
 62
     4
100
AcDbText
 10
222.435266
 20
391.3434759999998
 30
0.0
 40
6.4
  1
12
 41
1.200000000000001
 51
15.0
  7
FX_FONT
 72
     5
 11
235.235266
 21
391.3434759999998
 31
0.0
100
AcDbText
  0
LINE
  5
6C8
330
1E
100
AcDbEntity
  8
CSLAYER1
 62
     4
100
AcDbLine
 10
224.1432339999998
 20
389.1599799999998
 30
0.0
 11
236.1432339999998
 21
389.1599799999998
 31
0.0
  0
LINE
  5
6C9
330
1E
100
AcDbEntity
  8
CSLAYER1
 62
     4
100
AcDbLine
 10
224.1432339999998
 20
389.1599799999998
 30
0.0
 11
229.9387899999998
 21
390.712894
 31
0.0
  0
LINE
  5
6CA
330
1E
100
AcDbEntity
  8
CSLAYER1
 62
     4
100
AcDbLine
 10
224.1432339999998
 20
389.1599799999998
 30
0.0
 11
229.9387899999998
 21
387.607066
 31
0.0
  0
LINE
  5
6CB
330
1E
100
AcDbEntity
  8
CSLAYER1
 62
     4
100
AcDbLine
 10
236.1432339999998
 20
389.1599799999998
 30
0.0
 11
230.3476799999998
 21
390.712894
 31
0.0
  0
LINE
  5
6CC
330
1E
100
AcDbEntity
  8
CSLAYER1
 62
     4
100
AcDbLine
 10
236.1432339999998
 20
389.1599799999998
 30
0.0
 11
230.3476799999998
 21
387.607066
 31
0.0
  0
LINE
  5
6CD
330
1E
100
AcDbEntity
  8
CSLAYER1
 62
     4
100
AcDbLine
 10
224.1432339999998
 20
362.578324
 30
0.0
 11
224.1432339999998
 21
391.1599799999998
 31
0.0
  0
TEXT
  5
6CE
330
1E
100
AcDbEntity
  8
CSLAYER1
 62
     4
100
AcDbText
 10
212.02026
 20
391.159974
 30
0.0
 40
6.4
  1
4
 41
1.500000000000001
 51
15.0
  7
FX_FONT
 72
     5
 11
218.42026
 21
391.159974
 31
0.0
100
AcDbText
  0
LINE
  5
6CF
330
1E
100
AcDbEntity
  8
CSLAYER1
 62
     4
100
AcDbLine
 10
220.1432339999995
 20
389.1599799999998
 30
0.0
 11
224.1432339999998
 21
389.1599799999998
 31
0.0
  0
LINE
  5
6D0
330
1E
100
AcDbEntity
  8
CSLAYER1
 62
     4
100
AcDbLine
 10
210.29727
 20
389.1599799999998
 30
0.0
 11
220.1432339999995
 21
389.1599799999998
 31
0.0
  0
LINE
  5
6D1
330
1E
100
AcDbEntity
  8
CSLAYER1
 62
     4
100
AcDbLine
 10
220.1432339999995
 20
389.1599799999998
 30
0.0
 11
214.3476799999995
 21
390.712894
 31
0.0
  0
LINE
  5
6D2
330
1E
100
AcDbEntity
  8
CSLAYER1
 62
     4
100
AcDbLine
 10
220.1432339999995
 20
389.1599799999998
 30
0.0
 11
214.3476799999995
 21
387.607066
 31
0.0
  0
TEXT
  5
6D3
330
1E
100
AcDbEntity
  8
CSLAYER1
 62
     4
100
AcDbText
 10
194.387008
 20
381.678338
 30
0.0
 40
6.4
  1
35
 50
90.0
 41
1.200000000000001
 51
15.0
  7
FX_FONT
 72
     5
 11
194.387008
 21
394.478338
 31
0.0
100
AcDbText
  0
LINE
  5
6D4
330
1E
100
AcDbEntity
  8
CSLAYER1
 62
     4
100
AcDbLine
 10
196.387002
 20
370.578324
 30
0.0
 11
196.387002
 21
405.578324
 31
0.0
  0
LINE
  5
6D5
330
1E
100
AcDbEntity
  8
CSLAYER1
 62
     4
100
AcDbLine
 10
196.387002
 20
370.578324
 30
0.0
 11
194.834088
 21
376.373878
 31
0.0
  0
LINE
  5
6D6
330
1E
100
AcDbEntity
  8
CSLAYER1
 62
     4
100
AcDbLine
 10
196.387002
 20
370.578324
 30
0.0
 11
197.9399159999999
 21
376.373878
 31
0.0
  0
LINE
  5
6D7
330
1E
100
AcDbEntity
  8
CSLAYER1
 62
     4
100
AcDbLine
 10
196.387002
 20
405.578324
 30
0.0
 11
194.834088
 21
399.782768
 31
0.0
  0
LINE
  5
6D8
330
1E
100
AcDbEntity
  8
CSLAYER1
 62
     4
100
AcDbLine
 10
196.387002
 20
405.578324
 30
0.0
 11
197.9399159999999
 21
399.782768
 31
0.0
  0
LINE
  5
6D9
330
1E
100
AcDbEntity
  8
CSLAYER1
 62
     4
100
AcDbLine
 10
218.1432339999995
 20
370.578324
 30
0.0
 11
194.387002
 21
370.578324
 31
0.0
  0
LINE
  5
6DA
330
1E
100
AcDbEntity
  8
CSLAYER1
 62
     4
100
AcDbLine
 10
242.1432339999998
 20
405.578324
 30
0.0
 11
194.387002
 21
405.578324
 31
0.0
  0
TEXT
  5
6DB
330
1E
100
AcDbEntity
  8
CSLAYER1
 62
     4
100
AcDbText
 10
187.9870139999999
 20
349.0283379999998
 30
0.0
 40
6.4
  1
17.5
 50
90.0
 41
1.090909090909091
 51
15.0
  7
FX_FONT
 72
     5
 11
187.9870139999999
 21
374.6283379999998
 31
0.0
100
AcDbText
  0
LINE
  5
6DC
330
1E
100
AcDbEntity
  8
CSLAYER1
 62
     4
100
AcDbLine
 10
196.387002
 20
353.078324
 30
0.0
 11
196.387002
 21
370.578324
 31
0.0
  0
LINE
  5
6DD
330
1E
100
AcDbEntity
  8
CSLAYER1
 62
     4
100
AcDbLine
 10
213.732378
 20
353.078324
 30
0.0
 11
194.387002
 21
353.078324
 31
0.0
  0
TEXT
  5
6DE
330
1E
100
AcDbEntity
  8
CSLAYER1
 62
     4
100
AcDbText
 10
194.387008
 20
336.678338
 30
0.0
 40
6.4
  1
20
 50
90.0
 41
1.200000000000001
 51
15.0
  7
FX_FONT
 72
     5
 11
194.387008
 21
349.478338
 31
0.0
100
AcDbText
  0
LINE
  5
6DF
330
1E
100
AcDbEntity
  8
CSLAYER1
 62
     4
100
AcDbLine
 10
196.387002
 20
333.078324
 30
0.0
 11
196.387002
 21
353.078324
 31
0.0
  0
LINE
  5
6E0
330
1E
100
AcDbEntity
  8
CSLAYER1
 62
     4
100
AcDbLine
 10
196.387002
 20
333.078324
 30
0.0
 11
194.834088
 21
338.873878
 31
0.0
  0
LINE
  5
6E1
330
1E
100
AcDbEntity
  8
CSLAYER1
 62
     4
100
AcDbLine
 10
196.387002
 20
333.078324
 30
0.0
 11
197.9399159999999
 21
338.873878
 31
0.0
  0
LINE
  5
6E2
330
1E
100
AcDbEntity
  8
CSLAYER1
 62
     4
100
AcDbLine
 10
196.387002
 20
353.078324
 30
0.0
 11
194.834088
 21
347.282768
 31
0.0
  0
LINE
  5
6E3
330
1E
100
AcDbEntity
  8
CSLAYER1
 62
     4
100
AcDbLine
 10
196.387002
 20
353.078324
 30
0.0
 11
197.9399159999999
 21
347.282768
 31
0.0
  0
LINE
  5
6E4
330
1E
100
AcDbEntity
  8
CSLAYER1
 62
     4
100
AcDbLine
 10
213.732378
 20
333.078324
 30
0.0
 11
194.387002
 21
333.078324
 31
0.0
  0
TEXT
  5
6E5
330
1E
100
AcDbEntity
  8
CSLAYER1
 62
     4
100
AcDbText
 10
194.387008
 20
200.8283239999998
 30
0.0
 40
6.4
  1
232.5
 50
90.0
 41
1.071428571428578
 51
15.0
  7
FX_FONT
 72
     5
 11
194.387008
 21
232.828324
 31
0.0
100
AcDbText
  0
LINE
  5
6E6
330
1E
100
AcDbEntity
  8
CSLAYER1
 62
     4
100
AcDbLine
 10
196.387002
 20
100.5783239999999
 30
0.0
 11
196.387002
 21
333.078324
 31
0.0
  0
LINE
  5
6E7
330
1E
100
AcDbEntity
  8
CSLAYER1
 62
     4
100
AcDbLine
 10
196.387002
 20
100.5783239999999
 30
0.0
 11
194.834088
 21
106.3738779999999
 31
0.0
  0
LINE
  5
6E8
330
1E
100
AcDbEntity
  8
CSLAYER1
 62
     4
100
AcDbLine
 10
196.387002
 20
100.5783239999999
 30
0.0
 11
197.9399159999999
 21
106.3738779999999
 31
0.0
  0
LINE
  5
6E9
330
1E
100
AcDbEntity
  8
CSLAYER1
 62
     4
100
AcDbLine
 10
196.387002
 20
333.078324
 30
0.0
 11
194.834088
 21
327.282768
 31
0.0
  0
LINE
  5
6EA
330
1E
100
AcDbEntity
  8
CSLAYER1
 62
     4
100
AcDbLine
 10
196.387002
 20
333.078324
 30
0.0
 11
197.9399159999999
 21
327.282768
 31
0.0
  0
LINE
  5
6EB
330
1E
100
AcDbEntity
  8
CSLAYER1
 62
     4
100
AcDbLine
 10
215.6432339999998
 20
100.5783239999999
 30
0.0
 11
194.387002
 21
100.5783239999999
 31
0.0
  0
TEXT
  5
6EC
330
1E
100
AcDbEntity
  8
CSLAYER1
 62
     4
100
AcDbText
 10
233.7432339999998
 20
70.09682399999999
 30
0.0
 40
6.4
  1
45
 41
1.200000000000001
 51
15.0
  7
FX_FONT
 72
     5
 11
246.5432339999998
 21
70.09682399999999
 31
0.0
100
AcDbText
  0
LINE
  5
6ED
330
1E
100
AcDbEntity
  8
CSLAYER1
 62
     4
100
AcDbLine
 10
217.6432339999998
 20
68.096828
 30
0.0
 11
262.643234
 21
68.096828
 31
0.0
  0
LINE
  5
6EE
330
1E
100
AcDbEntity
  8
CSLAYER1
 62
     4
100
AcDbLine
 10
217.6432339999998
 20
68.096828
 30
0.0
 11
223.4387899999995
 21
69.649744
 31
0.0
  0
LINE
  5
6EF
330
1E
100
AcDbEntity
  8
CSLAYER1
 62
     4
100
AcDbLine
 10
217.6432339999998
 20
68.096828
 30
0.0
 11
223.4387899999995
 21
66.543914
 31
0.0
  0
LINE
  5
6F0
330
1E
100
AcDbEntity
  8
CSLAYER1
 62
     4
100
AcDbLine
 10
262.643234
 20
68.096828
 30
0.0
 11
256.8476799999998
 21
69.649744
 31
0.0
  0
LINE
  5
6F1
330
1E
100
AcDbEntity
  8
CSLAYER1
 62
     4
100
AcDbLine
 10
262.643234
 20
68.096828
 30
0.0
 11
256.8476799999998
 21
66.543914
 31
0.0
  0
LINE
  5
6F2
330
1E
100
AcDbEntity
  8
CSLAYER1
 62
     4
100
AcDbLine
 10
217.6432339999998
 20
98.57832399999999
 30
0.0
 11
217.6432339999998
 21
66.096828
 31
0.0
  0
LINE
  5
6F3
330
1E
100
AcDbEntity
  8
CSLAYER1
 62
     4
100
AcDbLine
 10
262.643234
 20
98.57832399999999
 30
0.0
 11
262.643234
 21
66.096828
 31
0.0
  0
TEXT
  5
6F4
330
1E
100
AcDbEntity
  8
CSLAYER1
 62
     4
100
AcDbText
 10
400.699848
 20
507.382232
 30
0.0
 40
6.4
  1
60.5
 41
1.090909090909094
 51
15.0
  7
FX_FONT
 72
     5
 11
426.299848
 21
507.382232
 31
0.0
100
AcDbText
  0
LINE
  5
6F5
330
1E
100
AcDbEntity
  8
CSLAYER1
 62
     4
100
AcDbLine
 10
383.249824
 20
505.3822219999998
 30
0.0
 11
443.749824
 21
505.3822219999998
 31
0.0
  0
LINE
  5
6F6
330
1E
100
AcDbEntity
  8
CSLAYER1
 62
     4
100
AcDbLine
 10
383.249824
 20
505.3822219999998
 30
0.0
 11
389.0453779999998
 21
506.935136
 31
0.0
  0
LINE
  5
6F7
330
1E
100
AcDbEntity
  8
CSLAYER1
 62
     4
100
AcDbLine
 10
383.249824
 20
505.3822219999998
 30
0.0
 11
389.0453779999998
 21
503.829308
 31
0.0
  0
LINE
  5
6F8
330
1E
100
AcDbEntity
  8
CSLAYER1
 62
     4
100
AcDbLine
 10
443.749824
 20
505.3822219999998
 30
0.0
 11
437.9542679999998
 21
506.935136
 31
0.0
  0
LINE
  5
6F9
330
1E
100
AcDbEntity
  8
CSLAYER1
 62
     4
100
AcDbLine
 10
443.749824
 20
505.3822219999998
 30
0.0
 11
437.9542679999998
 21
503.829308
 31
0.0
  0
LINE
  5
6FA
330
1E
100
AcDbEntity
  8
CSLAYER1
 62
     4
100
AcDbLine
 10
383.249824
 20
494.98625
 30
0.0
 11
383.249824
 21
507.3822219999998
 31
0.0
  0
LINE
  5
6FB
330
1E
100
AcDbEntity
  8
CSLAYER1
 62
     4
100
AcDbLine
 10
443.749824
 20
494.98625
 30
0.0
 11
443.749824
 21
507.3822219999998
 31
0.0
  0
TEXT
  5
6FC
330
1E
100
AcDbEntity
  8
CSLAYER1
 62
     4
100
AcDbText
 10
351.65091
 20
494.986248
 30
0.0
 40
6.4
  1
8
 50
90.0
 41
1.499999999999994
 51
15.0
  7
FX_FONT
 72
     5
 11
351.65091
 21
501.386248
 31
0.0
100
AcDbText
  0
LINE
  5
6FD
330
1E
100
AcDbEntity
  8
CSLAYER1
 62
     4
100
AcDbLine
 10
353.650904
 20
484.9862499999998
 30
0.0
 11
353.650904
 21
492.9862499999998
 31
0.0
  0
CIRCLE
  5
6FE
330
1E
100
AcDbEntity
  8
CSLAYER1
 62
     4
100
AcDbCircle
 10
353.650904
 20
484.9862499999998
 30
0.0
 40
2.0
  0
CIRCLE
  5
6FF
330
1E
100
AcDbEntity
  8
CSLAYER1
 62
     4
100
AcDbCircle
 10
353.650904
 20
484.9862499999998
 30
0.0
 40
1.0
  0
LINE
  5
700
330
1E
100
AcDbEntity
  8
CSLAYER1
 62
     4
100
AcDbLine
 10
353.650904
 20
492.9862499999998
 30
0.0
 11
353.650904
 21
503.38625
 31
0.0
  0
LINE
  5
701
330
1E
100
AcDbEntity
  8
CSLAYER1
 62
     4
100
AcDbLine
 10
353.650904
 20
492.9862499999998
 30
0.0
 11
352.0979899999999
 21
498.7818059999998
 31
0.0
  0
LINE
  5
702
330
1E
100
AcDbEntity
  8
CSLAYER1
 62
     4
100
AcDbLine
 10
353.650904
 20
492.9862499999998
 30
0.0
 11
355.203818
 21
498.7818059999998
 31
0.0
  0
TEXT
  5
703
330
1E
100
AcDbEntity
  8
CSLAYER1
 62
     4
100
AcDbText
 10
351.65091
 20
477.786236
 30
0.0
 40
6.4
  1
8
 50
90.0
 41
1.499999999999994
 51
15.0
  7
FX_FONT
 72
     5
 11
351.65091
 21
484.186236
 31
0.0
100
AcDbText
  0
LINE
  5
704
330
1E
100
AcDbEntity
  8
CSLAYER1
 62
     4
100
AcDbLine
 10
353.650904
 20
476.98625
 30
0.0
 11
353.650904
 21
484.9862499999998
 31
0.0
  0
CIRCLE
  5
705
330
1E
100
AcDbEntity
  8
CSLAYER1
 62
     4
100
AcDbCircle
 10
353.650904
 20
476.98625
 30
0.0
 40
2.0
  0
CIRCLE
  5
706
330
1E
100
AcDbEntity
  8
CSLAYER1
 62
     4
100
AcDbCircle
 10
353.650904
 20
476.98625
 30
0.0
 40
1.0
  0
TEXT
  5
707
330
1E
100
AcDbEntity
  8
CSLAYER1
 62
     4
100
AcDbText
 10
351.65091
 20
460.586254
 30
0.0
 40
6.4
  1
8
 50
90.0
 41
1.500000000000007
 51
15.0
  7
FX_FONT
 72
     5
 11
351.65091
 21
466.986254
 31
0.0
100
AcDbText
  0
LINE
  5
708
330
1E
100
AcDbEntity
  8
CSLAYER1
 62
     4
100
AcDbLine
 10
353.650904
 20
468.98625
 30
0.0
 11
353.650904
 21
476.98625
 31
0.0
  0
LINE
  5
709
330
1E
100
AcDbEntity
  8
CSLAYER1
 62
     4
100
AcDbLine
 10
379.249824
 20
468.98625
 30
0.0
 11
351.650904
 21
468.98625
 31
0.0
  0
LINE
  5
70A
330
1E
100
AcDbEntity
  8
CSLAYER1
 62
     4
100
AcDbLine
 10
379.249824
 20
476.98625
 30
0.0
 11
351.650904
 21
476.98625
 31
0.0
  0
LINE
  5
70B
330
1E
100
AcDbEntity
  8
CSLAYER1
 62
     4
100
AcDbLine
 10
353.650904
 20
458.58625
 30
0.0
 11
353.650904
 21
468.98625
 31
0.0
  0
LINE
  5
70C
330
1E
100
AcDbEntity
  8
CSLAYER1
 62
     4
100
AcDbLine
 10
353.650904
 20
468.98625
 30
0.0
 11
352.0979899999999
 21
463.190696
 31
0.0
  0
LINE
  5
70D
330
1E
100
AcDbEntity
  8
CSLAYER1
 62
     4
100
AcDbLine
 10
353.650904
 20
468.98625
 30
0.0
 11
355.203818
 21
463.190696
 31
0.0
  0
TEXT
  5
70E
330
1E
100
AcDbEntity
  8
CSLAYER1
 62
     4
100
AcDbText
 10
339.65091
 20
467.086236
 30
0.0
 40
6.4
  1
23
 50
90.0
 41
1.200000000000001
 51
15.0
  7
FX_FONT
 72
     5
 11
339.65091
 21
479.886236
 31
0.0
100
AcDbText
  0
LINE
  5
70F
330
1E
100
AcDbEntity
  8
CSLAYER1
 62
     4
100
AcDbLine
 10
341.650904
 20
461.9862499999999
 30
0.0
 11
341.650904
 21
484.9862499999998
 31
0.0
  0
LINE
  5
710
330
1E
100
AcDbEntity
  8
CSLAYER1
 62
     4
100
AcDbLine
 10
341.650904
 20
461.9862499999999
 30
0.0
 11
340.0979899999996
 21
467.7818059999999
 31
0.0
  0
LINE
  5
711
330
1E
100
AcDbEntity
  8
CSLAYER1
 62
     4
100
AcDbLine
 10
341.650904
 20
461.9862499999999
 30
0.0
 11
343.203818
 21
467.7818059999999
 31
0.0
  0
LINE
  5
712
330
1E
100
AcDbEntity
  8
CSLAYER1
 62
     4
100
AcDbLine
 10
341.650904
 20
484.9862499999998
 30
0.0
 11
340.0979899999996
 21
479.190696
 31
0.0
  0
LINE
  5
713
330
1E
100
AcDbEntity
  8
CSLAYER1
 62
     4
100
AcDbLine
 10
341.650904
 20
484.9862499999998
 30
0.0
 11
343.203818
 21
479.190696
 31
0.0
  0
LINE
  5
714
330
1E
100
AcDbEntity
  8
CSLAYER1
 62
     4
100
AcDbLine
 10
387.749824
 20
461.9862499999999
 30
0.0
 11
339.650904
 21
461.9862499999999
 31
0.0
  0
LINE
  5
715
330
1E
100
AcDbEntity
  8
CSLAYER1
 62
     4
100
AcDbLine
 10
381.249824
 20
484.9862499999998
 30
0.0
 11
339.650904
 21
484.9862499999998
 31
0.0
  0
TEXT
  5
716
330
1E
100
AcDbEntity
  8
CSLAYER1
 62
     4
100
AcDbText
 10
327.65091
 20
466.586236
 30
0.0
 40
6.4
  1
40
 50
90.0
 41
1.200000000000001
 51
15.0
  7
FX_FONT
 72
     5
 11
327.65091
 21
479.386236
 31
0.0
100
AcDbText
  0
LINE
  5
717
330
1E
100
AcDbEntity
  8
CSLAYER1
 62
     4
100
AcDbLine
 10
329.650904
 20
452.98625
 30
0.0
 11
329.650904
 21
492.9862499999998
 31
0.0
  0
LINE
  5
718
330
1E
100
AcDbEntity
  8
CSLAYER1
 62
     4
100
AcDbLine
 10
329.650904
 20
452.98625
 30
0.0
 11
328.0979899999998
 21
458.781806
 31
0.0
  0
LINE
  5
719
330
1E
100
AcDbEntity
  8
CSLAYER1
 62
     4
100
AcDbLine
 10
329.650904
 20
452.98625
 30
0.0
 11
331.203818
 21
458.781806
 31
0.0
  0
LINE
  5
71A
330
1E
100
AcDbEntity
  8
CSLAYER1
 62
     4
100
AcDbLine
 10
329.650904
 20
492.9862499999998
 30
0.0
 11
328.0979899999998
 21
487.190696
 31
0.0
  0
LINE
  5
71B
330
1E
100
AcDbEntity
  8
CSLAYER1
 62
     4
100
AcDbLine
 10
329.650904
 20
492.9862499999998
 30
0.0
 11
331.203818
 21
487.190696
 31
0.0
  0
LINE
  5
71C
330
1E
100
AcDbEntity
  8
CSLAYER1
 62
     4
100
AcDbLine
 10
381.249824
 20
452.98625
 30
0.0
 11
327.650904
 21
452.98625
 31
0.0
  0
LINE
  5
71D
330
1E
100
AcDbEntity
  8
CSLAYER1
 62
     4
100
AcDbLine
 10
381.249824
 20
492.9862499999998
 30
0.0
 11
327.650904
 21
492.9862499999998
 31
0.0
  0
LINE
  5
71E
330
1E
100
AcDbEntity
  8
CSLAYER1
  6
CONTINUOUS
 62
     4
100
AcDbLine
 10
403.070464
 20
467.272682
 30
0.0
 11
382.728222
 21
435.7773739999998
 31
0.0
  0
LINE
  5
71F
330
1E
100
AcDbEntity
  8
CSLAYER1
  6
CONTINUOUS
 62
     4
100
AcDbLine
 10
382.728222
 20
435.7773739999998
 30
0.0
 11
359.52822
 21
435.7773739999998
 31
0.0
  0
TEXT
  5
720
330
1E
100
AcDbEntity
  8
CSLAYER1
 62
     4
100
AcDbText
 10
361.528234
 20
437.777404
 30
0.0
 40
6.4
  1
切刃部
 41
0.9000000937499937
 51
15.0
  7
FX_FONT
 72
     5
 11
380.7282359999998
 21
437.777404
 31
0.0
100
AcDbText
  0
TEXT
  5
721
330
1E
100
AcDbEntity
  8
CSLAYER1
 62
     4
100
AcDbText
 10
346.09317
 20
412.144696
 30
0.0
 40
6.4
  1
2
 50
90.0
 41
1.499999999999994
 51
15.0
  7
FX_FONT
 72
     5
 11
346.09317
 21
418.544696
 31
0.0
100
AcDbText
  0
LINE
  5
722
330
1E
100
AcDbEntity
  8
CSLAYER1
 62
     4
100
AcDbLine
 10
358.9618619999998
 20
403.5783239999998
 30
0.0
 11
358.9618619999998
 21
405.578324
 31
0.0
  0
LINE
  5
723
330
1E
100
AcDbEntity
  8
CSLAYER1
 62
     4
100
AcDbLine
 10
388.749824
 20
403.5783239999998
 30
0.0
 11
356.9618619999998
 21
403.5783239999998
 31
0.0
  0
LINE
  5
724
330
1E
100
AcDbEntity
  8
CSLAYER1
 62
     4
100
AcDbLine
 10
358.9618619999998
 20
404.578324
 30
0.0
 11
348.093174
 21
410.144696
 31
0.0
  0
LINE
  5
725
330
1E
100
AcDbEntity
  8
CSLAYER1
 62
     4
100
AcDbLine
 10
348.093174
 20
410.144696
 30
0.0
 11
348.093174
 21
420.5446959999998
 31
0.0
  0
TEXT
  5
726
330
1E
100
AcDbEntity
  8
CSLAYER1
 62
     4
100
AcDbText
 10
356.961854
 20
406.678338
 30
0.0
 40
6.4
  1
15
 50
90.0
 41
1.200000000000001
 51
15.0
  7
FX_FONT
 72
     5
 11
356.961854
 21
419.478338
 31
0.0
100
AcDbText
  0
LINE
  5
727
330
1E
100
AcDbEntity
  8
CSLAYER1
 62
     4
100
AcDbLine
 10
358.9618619999998
 20
405.578324
 30
0.0
 11
358.9618619999998
 21
420.578324
 31
0.0
  0
LINE
  5
728
330
1E
100
AcDbEntity
  8
CSLAYER1
 62
     4
100
AcDbLine
 10
358.9618619999998
 20
405.578324
 30
0.0
 11
357.4089479999998
 21
411.373878
 31
0.0
  0
LINE
  5
729
330
1E
100
AcDbEntity
  8
CSLAYER1
 62
     4
100
AcDbLine
 10
358.9618619999998
 20
405.578324
 30
0.0
 11
360.5147759999998
 21
411.373878
 31
0.0
  0
LINE
  5
72A
330
1E
100
AcDbEntity
  8
CSLAYER1
 62
     4
100
AcDbLine
 10
358.9618619999998
 20
420.578324
 30
0.0
 11
357.4089479999998
 21
414.782768
 31
0.0
  0
LINE
  5
72B
330
1E
100
AcDbEntity
  8
CSLAYER1
 62
     4
100
AcDbLine
 10
358.9618619999998
 20
420.578324
 30
0.0
 11
360.5147759999998
 21
414.782768
 31
0.0
  0
LINE
  5
72C
330
1E
100
AcDbEntity
  8
CSLAYER1
 62
     4
100
AcDbLine
 10
390.749824
 20
405.578324
 30
0.0
 11
356.9618619999998
 21
405.578324
 31
0.0
  0
LINE
  5
72D
330
1E
100
AcDbEntity
  8
CSLAYER1
 62
     4
100
AcDbLine
 10
388.749824
 20
420.578324
 30
0.0
 11
356.9618619999998
 21
420.578324
 31
0.0
  0
TEXT
  5
72E
330
1E
100
AcDbEntity
  8
CSLAYER1
 62
     4
100
AcDbText
 10
356.961854
 20
396.3783379999998
 30
0.0
 40
6.4
  1
8
 50
90.0
 41
1.499999999999994
 51
15.0
  7
FX_FONT
 72
     5
 11
356.961854
 21
402.7783379999998
 31
0.0
100
AcDbText
  0
LINE
  5
72F
330
1E
100
AcDbEntity
  8
CSLAYER1
 62
     4
100
AcDbLine
 10
358.9618619999998
 20
395.578324
 30
0.0
 11
358.9618619999998
 21
403.5783239999998
 31
0.0
  0
CIRCLE
  5
730
330
1E
100
AcDbEntity
  8
CSLAYER1
 62
     4
100
AcDbCircle
 10
358.9618619999998
 20
403.5783239999998
 30
0.0
 40
2.0
  0
CIRCLE
  5
731
330
1E
100
AcDbEntity
  8
CSLAYER1
 62
     4
100
AcDbCircle
 10
358.9618619999998
 20
403.5783239999998
 30
0.0
 40
1.0
  0
LINE
  5
732
330
1E
100
AcDbEntity
  8
CSLAYER1
 62
     4
100
AcDbLine
 10
391.249824
 20
395.578324
 30
0.0
 11
356.9618619999998
 21
395.578324
 31
0.0
  0
TEXT
  5
733
330
1E
100
AcDbEntity
  8
CSLAYER1
 62
     4
100
AcDbText
 10
356.961854
 20
373.5115299999999
 30
0.0
 40
6.4
  1
12
 50
90.0
 41
1.200000000000001
 51
15.0
  7
FX_FONT
 72
     5
 11
356.961854
 21
386.31153
 31
0.0
100
AcDbText
  0
LINE
  5
734
330
1E
100
AcDbEntity
  8
CSLAYER1
 62
     4
100
AcDbLine
 10
358.9618619999998
 20
383.5783239999998
 30
0.0
 11
358.9618619999998
 21
395.578324
 31
0.0
  0
CIRCLE
  5
735
330
1E
100
AcDbEntity
  8
CSLAYER1
 62
     4
100
AcDbCircle
 10
358.9618619999998
 20
395.578324
 30
0.0
 40
2.0
  0
CIRCLE
  5
736
330
1E
100
AcDbEntity
  8
CSLAYER1
 62
     4
100
AcDbCircle
 10
358.9618619999998
 20
395.578324
 30
0.0
 40
1.0
  0
LINE
  5
737
330
1E
100
AcDbEntity
  8
CSLAYER1
 62
     4
100
AcDbLine
 10
379.249824
 20
383.5783239999998
 30
0.0
 11
356.9618619999998
 21
383.5783239999998
 31
0.0
  0
LINE
  5
738
330
1E
100
AcDbEntity
  8
CSLAYER1
 62
     4
100
AcDbLine
 10
358.9618619999998
 20
376.2447399999998
 30
0.0
 11
358.9618619999998
 21
383.5783239999998
 31
0.0
  0
LINE
  5
739
330
1E
100
AcDbEntity
  8
CSLAYER1
 62
     4
100
AcDbLine
 10
358.9618619999998
 20
383.5783239999998
 30
0.0
 11
357.4089479999998
 21
377.782768
 31
0.0
  0
LINE
  5
73A
330
1E
100
AcDbEntity
  8
CSLAYER1
 62
     4
100
AcDbLine
 10
358.9618619999998
 20
383.5783239999998
 30
0.0
 11
360.5147759999998
 21
377.782768
 31
0.0
  0
TEXT
  5
73B
330
1E
100
AcDbEntity
  8
CSLAYER1
 62
     4
100
AcDbText
 10
391.9904119999998
 20
396.4499819999998
 30
0.0
 40
6.4
  1
19
 41
1.200000000000016
 51
15.0
  7
FX_FONT
 72
     5
 11
404.790412
 21
396.4499819999998
 31
0.0
100
AcDbText
  0
LINE
  5
73C
330
1E
100
AcDbEntity
  8
CSLAYER1
 62
     4
100
AcDbLine
 10
393.249824
 20
392.547772
 30
0.0
 11
412.249824
 21
392.547772
 31
0.0
  0
LINE
  5
73D
330
1E
100
AcDbEntity
  8
CSLAYER1
 62
     4
100
AcDbLine
 10
393.249824
 20
392.547772
 30
0.0
 11
399.0453779999998
 21
394.1006859999998
 31
0.0
  0
LINE
  5
73E
330
1E
100
AcDbEntity
  8
CSLAYER1
 62
     4
100
AcDbLine
 10
393.249824
 20
392.547772
 30
0.0
 11
399.0453779999998
 21
390.994858
 31
0.0
  0
LINE
  5
73F
330
1E
100
AcDbEntity
  8
CSLAYER1
 62
     4
100
AcDbLine
 10
412.249824
 20
392.547772
 30
0.0
 11
406.454268
 21
394.1006859999998
 31
0.0
  0
LINE
  5
740
330
1E
100
AcDbEntity
  8
CSLAYER1
 62
     4
100
AcDbLine
 10
412.249824
 20
392.547772
 30
0.0
 11
406.454268
 21
390.994858
 31
0.0
  0
LINE
  5
741
330
1E
100
AcDbEntity
  8
CSLAYER1
 62
     4
100
AcDbLine
 10
393.249824
 20
392.078324
 30
0.0
 11
393.249824
 21
394.5477719999998
 31
0.0
  0
LINE
  5
742
330
1E
100
AcDbEntity
  8
CSLAYER1
  6
CONTINUOUS
 62
     4
100
AcDbLine
 10
426.4249959999999
 20
404.567204
 30
0.0
 11
454.537142
 21
426.256416
 31
0.0
  0
CIRCLE
  5
743
330
1E
100
AcDbEntity
  8
CSLAYER1
  6
CONTINUOUS
 62
     4
100
AcDbCircle
 10
426.4249959999999
 20
404.567204
 30
0.0
 40
2.0
  0
CIRCLE
  5
744
330
1E
100
AcDbEntity
  8
CSLAYER1
  6
CONTINUOUS
 62
     4
100
AcDbCircle
 10
426.4249959999999
 20
404.567204
 30
0.0
 40
1.0
  0
LINE
  5
745
330
1E
100
AcDbEntity
  8
CSLAYER1
  6
CONTINUOUS
 62
     4
100
AcDbLine
 10
454.537142
 20
426.256416
 30
0.0
 11
522.537142
 21
426.256416
 31
0.0
  0
TEXT
  5
746
330
1E
100
AcDbEntity
  8
CSLAYER1
 62
     4
100
AcDbText
 10
456.53714
 20
428.256378
 30
0.0
 40
6.4
  1
テフロンコーティング
 41
0.8522727272727268
 51
15.0
  7
FX_FONT
 72
     5
 11
520.53714
 21
428.256378
 31
0.0
100
AcDbText
  0
TEXT
  5
747
330
1E
100
AcDbEntity
  8
CSLAYER1
 62
     4
100
AcDbText
 10
504.713348
 20
389.1784
 30
0.0
 40
6.4
  1
50
 50
90.0
 41
1.200000000000001
 51
15.0
  7
FX_FONT
 72
     5
 11
504.713348
 21
401.9784
 31
0.0
100
AcDbText
  0
LINE
  5
748
330
1E
100
AcDbEntity
  8
CSLAYER1
 62
     4
100
AcDbLine
 10
506.7133799999998
 20
370.578324
 30
0.0
 11
506.7133799999998
 21
420.578324
 31
0.0
  0
LINE
  5
749
330
1E
100
AcDbEntity
  8
CSLAYER1
 62
     4
100
AcDbLine
 10
506.7133799999998
 20
370.578324
 30
0.0
 11
505.160466
 21
376.373878
 31
0.0
  0
LINE
  5
74A
330
1E
100
AcDbEntity
  8
CSLAYER1
 62
     4
100
AcDbLine
 10
506.7133799999998
 20
370.578324
 30
0.0
 11
508.266294
 21
376.373878
 31
0.0
  0
LINE
  5
74B
330
1E
100
AcDbEntity
  8
CSLAYER1
 62
     4
100
AcDbLine
 10
506.7133799999998
 20
420.578324
 30
0.0
 11
505.160466
 21
414.782768
 31
0.0
  0
LINE
  5
74C
330
1E
100
AcDbEntity
  8
CSLAYER1
 62
     4
100
AcDbLine
 10
506.7133799999998
 20
420.578324
 30
0.0
 11
508.266294
 21
414.782768
 31
0.0
  0
TEXT
  5
74D
330
1E
100
AcDbEntity
  8
CSLAYER1
 62
     4
100
AcDbText
 10
504.713348
 20
322.678338
 30
0.0
 40
6.4
  1
83
 50
90.0
 41
1.200000000000001
 51
15.0
  7
FX_FONT
 72
     5
 11
504.713348
 21
335.478338
 31
0.0
100
AcDbText
  0
LINE
  5
74E
330
1E
100
AcDbEntity
  8
CSLAYER1
 62
     4
100
AcDbLine
 10
506.7133799999998
 20
287.578324
 30
0.0
 11
506.7133799999998
 21
370.578324
 31
0.0
  0
LINE
  5
74F
330
1E
100
AcDbEntity
  8
CSLAYER1
 62
     4
100
AcDbLine
 10
506.7133799999998
 20
287.578324
 30
0.0
 11
505.160466
 21
293.373878
 31
0.0
  0
LINE
  5
750
330
1E
100
AcDbEntity
  8
CSLAYER1
 62
     4
100
AcDbLine
 10
506.7133799999998
 20
287.578324
 30
0.0
 11
508.266294
 21
293.373878
 31
0.0
  0
LINE
  5
751
330
1E
100
AcDbEntity
  8
CSLAYER1
 62
     4
100
AcDbLine
 10
506.7133799999998
 20
370.578324
 30
0.0
 11
505.160466
 21
364.782768
 31
0.0
  0
LINE
  5
752
330
1E
100
AcDbEntity
  8
CSLAYER1
 62
     4
100
AcDbLine
 10
506.7133799999998
 20
370.578324
 30
0.0
 11
508.266294
 21
364.782768
 31
0.0
  0
LINE
  5
753
330
1E
100
AcDbEntity
  8
CSLAYER1
 62
     4
100
AcDbLine
 10
445.749824
 20
370.578324
 30
0.0
 11
508.71338
 21
370.578324
 31
0.0
  0
TEXT
  5
754
330
1E
100
AcDbEntity
  8
CSLAYER1
 62
     4
100
AcDbText
 10
497.3738099999998
 20
299.4283879999996
 30
0.0
 40
6.4
  1
5
 50
90.0
 41
1.499999999999994
 51
15.0
  7
FX_FONT
 72
     5
 11
497.3738099999998
 21
305.8283879999996
 31
0.0
100
AcDbText
  0
LINE
  5
755
330
1E
100
AcDbEntity
  8
CSLAYER1
 62
     4
100
AcDbLine
 10
506.7133799999998
 20
282.578324
 30
0.0
 11
506.7133799999998
 21
287.578324
 31
0.0
  0
LINE
  5
756
330
1E
100
AcDbEntity
  8
CSLAYER1
 62
     4
100
AcDbLine
 10
445.749824
 20
287.578324
 30
0.0
 11
508.71338
 21
287.578324
 31
0.0
  0
LINE
  5
757
330
1E
100
AcDbEntity
  8
CSLAYER1
 62
     4
100
AcDbLine
 10
506.7133799999998
 20
285.078324
 30
0.0
 11
499.373792
 21
297.428372
 31
0.0
  0
LINE
  5
758
330
1E
100
AcDbEntity
  8
CSLAYER1
 62
     4
100
AcDbLine
 10
499.373792
 20
297.428372
 30
0.0
 11
499.373792
 21
307.8283719999998
 31
0.0
  0
TEXT
  5
759
330
1E
100
AcDbEntity
  8
CSLAYER1
 62
     4
100
AcDbText
 10
504.713348
 20
267.6783379999998
 30
0.0
 40
6.4
  1
17
 50
90.0
 41
1.200000000000001
 51
15.0
  7
FX_FONT
 72
     5
 11
504.713348
 21
280.4783379999998
 31
0.0
100
AcDbText
  0
LINE
  5
75A
330
1E
100
AcDbEntity
  8
CSLAYER1
 62
     4
100
AcDbLine
 10
506.7133799999998
 20
265.578324
 30
0.0
 11
506.7133799999998
 21
282.578324
 31
0.0
  0
LINE
  5
75B
330
1E
100
AcDbEntity
  8
CSLAYER1
 62
     4
100
AcDbLine
 10
506.7133799999998
 20
265.578324
 30
0.0
 11
505.160466
 21
271.3738779999998
 31
0.0
  0
LINE
  5
75C
330
1E
100
AcDbEntity
  8
CSLAYER1
 62
     4
100
AcDbLine
 10
506.7133799999998
 20
265.578324
 30
0.0
 11
508.266294
 21
271.3738779999998
 31
0.0
  0
LINE
  5
75D
330
1E
100
AcDbEntity
  8
CSLAYER1
 62
     4
100
AcDbLine
 10
506.7133799999998
 20
282.578324
 30
0.0
 11
505.160466
 21
276.782768
 31
0.0
  0
LINE
  5
75E
330
1E
100
AcDbEntity
  8
CSLAYER1
 62
     4
100
AcDbLine
 10
506.7133799999998
 20
282.578324
 30
0.0
 11
508.266294
 21
276.782768
 31
0.0
  0
LINE
  5
75F
330
1E
100
AcDbEntity
  8
CSLAYER1
 62
     4
100
AcDbLine
 10
445.749824
 20
282.578324
 30
0.0
 11
508.71338
 21
282.578324
 31
0.0
  0
TEXT
  5
760
330
1E
100
AcDbEntity
  8
CSLAYER1
 62
     4
100
AcDbText
 10
516.713378
 20
250.978338
 30
0.0
 40
6.4
  1
320
 50
90.0
 41
1.125
 51
15.0
  7
FX_FONT
 72
     5
 11
516.713378
 21
270.178338
 31
0.0
100
AcDbText
  0
LINE
  5
761
330
1E
100
AcDbEntity
  8
CSLAYER1
 62
     4
100
AcDbLine
 10
518.71338
 20
100.5783239999999
 30
0.0
 11
518.71338
 21
420.578324
 31
0.0
  0
LINE
  5
762
330
1E
100
AcDbEntity
  8
CSLAYER1
 62
     4
100
AcDbLine
 10
518.71338
 20
100.5783239999999
 30
0.0
 11
517.160466
 21
106.3738779999999
 31
0.0
  0
LINE
  5
763
330
1E
100
AcDbEntity
  8
CSLAYER1
 62
     4
100
AcDbLine
 10
518.71338
 20
100.5783239999999
 30
0.0
 11
520.266294
 21
106.3738779999999
 31
0.0
  0
LINE
  5
764
330
1E
100
AcDbEntity
  8
CSLAYER1
 62
     4
100
AcDbLine
 10
518.71338
 20
420.578324
 30
0.0
 11
517.160466
 21
414.782768
 31
0.0
  0
LINE
  5
765
330
1E
100
AcDbEntity
  8
CSLAYER1
 62
     4
100
AcDbLine
 10
518.71338
 20
420.578324
 30
0.0
 11
520.266294
 21
414.782768
 31
0.0
  0
LINE
  5
766
330
1E
100
AcDbEntity
  8
CSLAYER1
 62
     4
100
AcDbLine
 10
453.749824
 20
100.5783239999999
 30
0.0
 11
520.71338
 21
100.5783239999999
 31
0.0
  0
LINE
  5
767
330
1E
100
AcDbEntity
  8
CSLAYER1
 62
     4
100
AcDbLine
 10
430.749824
 20
420.578324
 30
0.0
 11
520.71338
 21
420.578324
 31
0.0
  0
TEXT
  5
768
330
1E
100
AcDbEntity
  8
CSLAYER1
 62
     4
100
AcDbText
 10
504.713348
 20
173.4783379999999
 30
0.0
 40
6.4
  1
165
 50
90.0
 41
1.125000000000001
 51
15.0
  7
FX_FONT
 72
     5
 11
504.713348
 21
192.678338
 31
0.0
100
AcDbText
  0
LINE
  5
769
330
1E
100
AcDbEntity
  8
CSLAYER1
 62
     4
100
AcDbLine
 10
506.7133799999998
 20
100.5783239999999
 30
0.0
 11
506.7133799999998
 21
265.578324
 31
0.0
  0
LINE
  5
76A
330
1E
100
AcDbEntity
  8
CSLAYER1
 62
     4
100
AcDbLine
 10
506.7133799999998
 20
100.5783239999999
 30
0.0
 11
505.160466
 21
106.3738779999999
 31
0.0
  0
LINE
  5
76B
330
1E
100
AcDbEntity
  8
CSLAYER1
 62
     4
100
AcDbLine
 10
506.7133799999998
 20
100.5783239999999
 30
0.0
 11
508.266294
 21
106.3738779999999
 31
0.0
  0
LINE
  5
76C
330
1E
100
AcDbEntity
  8
CSLAYER1
 62
     4
100
AcDbLine
 10
506.7133799999998
 20
265.578324
 30
0.0
 11
505.160466
 21
259.782768
 31
0.0
  0
LINE
  5
76D
330
1E
100
AcDbEntity
  8
CSLAYER1
 62
     4
100
AcDbLine
 10
506.7133799999998
 20
265.578324
 30
0.0
 11
508.266294
 21
259.782768
 31
0.0
  0
LINE
  5
76E
330
1E
100
AcDbEntity
  8
CSLAYER1
 62
     4
100
AcDbLine
 10
445.749824
 20
265.578324
 30
0.0
 11
508.71338
 21
265.578324
 31
0.0
  0
TEXT
  5
76F
330
1E
100
AcDbEntity
  8
CSLAYER1
 62
     4
100
AcDbText
 10
422.349816
 20
75.56951999999999
 30
0.0
 40
6.4
  1
46
 41
1.199999999999995
 51
15.0
  7
FX_FONT
 72
     5
 11
435.149816
 21
75.56951999999999
 31
0.0
100
AcDbText
  0
LINE
  5
770
330
1E
100
AcDbEntity
  8
CSLAYER1
 62
     4
100
AcDbLine
 10
405.749824
 20
73.56951600000001
 30
0.0
 11
451.749824
 21
73.56951600000001
 31
0.0
  0
LINE
  5
771
330
1E
100
AcDbEntity
  8
CSLAYER1
 62
     4
100
AcDbLine
 10
405.749824
 20
73.56951600000001
 30
0.0
 11
411.545378
 21
75.12243199999995
 31
0.0
  0
LINE
  5
772
330
1E
100
AcDbEntity
  8
CSLAYER1
 62
     4
100
AcDbLine
 10
405.749824
 20
73.56951600000001
 30
0.0
 11
411.545378
 21
72.016602
 31
0.0
  0
LINE
  5
773
330
1E
100
AcDbEntity
  8
CSLAYER1
 62
     4
100
AcDbLine
 10
451.749824
 20
73.56951600000001
 30
0.0
 11
445.9542679999998
 21
75.12243199999995
 31
0.0
  0
LINE
  5
774
330
1E
100
AcDbEntity
  8
CSLAYER1
 62
     4
100
AcDbLine
 10
451.749824
 20
73.56951600000001
 30
0.0
 11
445.9542679999998
 21
72.016602
 31
0.0
  0
TEXT
  5
775
330
1E
100
AcDbEntity
  8
CSLAYER1
 62
     4
100
AcDbText
 10
404.699816
 20
63.569542
 30
0.0
 40
6.4
  1
68.5
 41
1.090909176136357
 51
15.0
  7
FX_FONT
 72
     5
 11
430.2998179999998
 21
63.569542
 31
0.0
100
AcDbText
  0
LINE
  5
776
330
1E
100
AcDbEntity
  8
CSLAYER1
 62
     4
100
AcDbLine
 10
383.249824
 20
61.569516
 30
0.0
 11
451.749824
 21
61.569516
 31
0.0
  0
LINE
  5
777
330
1E
100
AcDbEntity
  8
CSLAYER1
 62
     4
100
AcDbLine
 10
383.249824
 20
61.569516
 30
0.0
 11
389.0453779999998
 21
63.122432
 31
0.0
  0
LINE
  5
778
330
1E
100
AcDbEntity
  8
CSLAYER1
 62
     4
100
AcDbLine
 10
383.249824
 20
61.569516
 30
0.0
 11
389.0453779999998
 21
60.01660199999998
 31
0.0
  0
LINE
  5
779
330
1E
100
AcDbEntity
  8
CSLAYER1
 62
     4
100
AcDbLine
 10
451.749824
 20
61.569516
 30
0.0
 11
445.9542679999998
 21
63.122432
 31
0.0
  0
LINE
  5
77A
330
1E
100
AcDbEntity
  8
CSLAYER1
 62
     4
100
AcDbLine
 10
451.749824
 20
61.569516
 30
0.0
 11
445.9542679999998
 21
60.01660199999998
 31
0.0
  0
LINE
  5
77B
330
1E
100
AcDbEntity
  8
CSLAYER1
 62
     4
100
AcDbLine
 10
383.249824
 20
98.57832399999999
 30
0.0
 11
383.249824
 21
59.569516
 31
0.0
  0
LINE
  5
77C
330
1E
100
AcDbEntity
  8
CSLAYER1
 62
     4
100
AcDbLine
 10
451.749824
 20
98.57832399999999
 30
0.0
 11
451.749824
 21
59.569516
 31
0.0
  0
TEXT
  5
77D
330
1E
100
AcDbEntity
  8
CSLAYER1
 62
     4
100
AcDbText
 10
355.6498279999998
 20
75.56951999999999
 30
0.0
 40
6.4
  1
22.5
 41
1.090909176136364
 51
15.0
  7
FX_FONT
 72
     5
 11
381.2498299999998
 21
75.56951999999999
 31
0.0
100
AcDbText
  0
LINE
  5
77E
330
1E
100
AcDbEntity
  8
CSLAYER1
 62
     4
100
AcDbLine
 10
383.249824
 20
73.56951600000001
 30
0.0
 11
405.749824
 21
73.56951600000001
 31
0.0
  0
LINE
  5
77F
330
1E
100
AcDbEntity
  8
CSLAYER1
 62
     4
100
AcDbLine
 10
405.749824
 20
83.86292799999996
 30
0.0
 11
405.749824
 21
71.56951600000001
 31
0.0
  0
LINE
  5
780
330
1E
100
AcDbEntity
  8
CSLAYER1
 62
     4
100
AcDbLine
 10
353.649824
 20
73.56951600000001
 30
0.0
 11
383.249824
 21
73.56951600000001
 31
0.0
  0
LINE
  5
781
330
1E
100
AcDbEntity
  8
CSLAYER1
 62
     4
100
AcDbLine
 10
383.249824
 20
73.56951600000001
 30
0.0
 11
377.454268
 21
75.12243199999995
 31
0.0
  0
LINE
  5
782
330
1E
100
AcDbEntity
  8
CSLAYER1
 62
     4
100
AcDbLine
 10
383.249824
 20
73.56951600000001
 30
0.0
 11
377.454268
 21
72.016602
 31
0.0
  0
LINE
  5
783
330
1E
100
AcDbEntity
  8
CSLAYER1
  6
CONTINUOUS
 62
     4
100
AcDbLine
 10
622.074596
 20
331.41266
 30
0.0
 11
654.480046
 21
302.459738
 31
0.0
  0
LINE
  5
784
330
1E
100
AcDbEntity
  8
CSLAYER1
  6
CONTINUOUS
 62
     4
100
AcDbLine
 10
622.074596
 20
331.41266
 30
0.0
 11
627.4310799999995
 21
328.7093159999998
 31
0.0
  0
LINE
  5
785
330
1E
100
AcDbEntity
  8
CSLAYER1
  6
CONTINUOUS
 62
     4
100
AcDbLine
 10
622.074596
 20
331.41266
 30
0.0
 11
625.361774
 21
326.393252
 31
0.0
  0
LINE
  5
786
330
1E
100
AcDbEntity
  8
CSLAYER1
  6
CONTINUOUS
 62
     4
100
AcDbLine
 10
654.480046
 20
302.459738
 30
0.0
 11
741.680048
 21
302.459738
 31
0.0
  0
TEXT
  5
787
330
1E
100
AcDbEntity
  8
CSLAYER1
 62
     4
100
AcDbText
 10
656.480078
 20
304.459748
 30
0.0
 40
6.4
  1
4-M5X0.8 深サ12
 41
1.026315789473679
 51
15.0
  7
FX_FONT
 72
     5
 11
739.6800779999996
 21
304.459748
 31
0.0
100
AcDbText
  0
LINE
  5
788
330
1E
100
AcDbEntity
  8
CSLAYER1
  6
CONTINUOUS
 62
     4
100
AcDbLine
 10
586.007334
 20
126.6087219999999
 30
0.0
 11
566.407776
 21
71.676376
 31
0.0
  0
CIRCLE
  5
789
330
1E
100
AcDbEntity
  8
CSLAYER1
  6
CONTINUOUS
 62
     4
100
AcDbCircle
 10
586.007334
 20
126.6087219999999
 30
0.0
 40
2.0
  0
CIRCLE
  5
78A
330
1E
100
AcDbEntity
  8
CSLAYER1
  6
CONTINUOUS
 62
     4
100
AcDbCircle
 10
586.007334
 20
126.6087219999999
 30
0.0
 40
1.0
  0
LINE
  5
78B
330
1E
100
AcDbEntity
  8
CSLAYER1
  6
CONTINUOUS
 62
     4
100
AcDbLine
 10
566.407776
 20
71.676376
 30
0.0
 11
625.7909259999998
 21
71.676376
 31
0.0
  0
TEXT
  5
78C
330
1E
100
AcDbEntity
  8
CSLAYER1
 62
     4
100
AcDbText
 10
575.658716
 20
73.67635400000001
 30
0.0
 40
6.4
  1
電動シリンダー
 41
0.8677685950413145
 51
15.0
  7
FX_FONT
 72
     5
 11
620.4587159999996
 21
73.67635400000001
 31
0.0
100
AcDbText
  0
ENDSEC
  0
SECTION
  2
OBJECTS
  0
DICTIONARY
  5
C
330
0
100
AcDbDictionary
  3
ACAD_GROUP
350
D
  3
ACAD_LAYOUT
350
19
  3
ACAD_MLINESTYLE
350
16
  3
ACAD_PLOTSETTINGS
350
18
1001
ACAD
1000
TREAT_AS_HARD
1070
     0
1000
TREAT_AS_HARD
1070
     0
1000
TREAT_AS_HARD
1070
     0
  0
DICTIONARY
  5
638
330
1E
100
AcDbDictionary
  3
ACAD_LAYOUTSELFREF
350
791
1001
ACAD
1000
TREAT_AS_HARD
1070
     0
1000
TREAT_AS_HARD
1070
     0
  0
DICTIONARY
  5
636
330
1A
100
AcDbDictionary
  3
ACAD_LAYOUTSELFREF
350
790
1001
ACAD
1000
TREAT_AS_HARD
1070
     0
1000
TREAT_AS_HARD
1070
     0
  0
DICTIONARY
  5
D
102
{ACAD_REACTORS
330
C
102
}
330
C
100
AcDbDictionary
1001
ACAD
1000
TREAT_AS_HARD
1070
     0
1000
TREAT_AS_HARD
1070
     0
1000
TREAT_AS_HARD
1070
     0
  0
DICTIONARY
  5
19
102
{ACAD_REACTORS
330
C
102
}
330
C
100
AcDbDictionary
1001
ACAD
1000
TREAT_AS_HARD
1070
     0
1000
TREAT_AS_HARD
1070
     0
1000
TREAT_AS_HARD
1070
     0
  0
DICTIONARY
  5
16
102
{ACAD_REACTORS
330
C
102
}
330
C
100
AcDbDictionary
  3
STANDARD
350
17
1001
ACAD
1000
TREAT_AS_HARD
1070
     0
1000
TREAT_AS_HARD
1070
     0
1000
TREAT_AS_HARD
1070
     0
  0
DICTIONARY
  5
18
102
{ACAD_REACTORS
330
C
102
}
330
C
100
AcDbDictionary
1001
ACAD
1000
TREAT_AS_HARD
1070
     0
1000
TREAT_AS_HARD
1070
     0
1000
TREAT_AS_HARD
1070
     0
  0
XRECORD
  5
791
102
{ACAD_REACTORS
330
638
102
}
330
638
100
AcDbXrecord
340
1E
  0
XRECORD
  5
790
102
{ACAD_REACTORS
330
636
102
}
330
636
100
AcDbXrecord
340
1A
  0
MLINESTYLE
  5
17
102
{ACAD_REACTORS
330
16
102
}
330
16
100
AcDbMlineStyle
  2
STANDARD
 70
     0
  3

 62
   256
 51
90.0
 52
90.0
 71
     2
 49
0.5
 62
   256
  6
BYLAYER
 49
-0.5
 62
   256
  6
BYLAYER
  0
ENDSEC
  0
EOF
