  0
SECTION
  2
HEADER
  9
$ACADVER
  1
AC1012
  9
$DWGCODEPAGE
  3
dos932
  9
$INSBASE
 10
0.0
 20
0.0
 30
0.0
  9
$EXTMIN
 10
0.4894416100455601
 20
0.4902653820932415
 30
-0.0000000349181948
  9
$EXTMAX
 10
144.0134587653603
 20
99.50454747945139
 30
0.0000000814935747
  9
$LIMMIN
 10
0.0
 20
0.0
  9
$LIMMAX
 10
297.0
 20
210.0
  9
$ORTHOMODE
 70
     0
  9
$REGENMODE
 70
     1
  9
$FILLMODE
 70
     1
  9
$QTEXTMODE
 70
     0
  9
$MIRRTEXT
 70
     1
  9
$DRAGMODE
 70
     2
  9
$LTSCALE
 40
15.0
  9
$OSMODE
 70
    37
  9
$ATTMODE
 70
     1
  9
$TEXTSIZE
 40
0.2
  9
$TRACEWID
 40
0.05
  9
$TEXTSTYLE
  7
GOTHIC
  9
$CLAYER
  8
CSLAYER1
  9
$CELTYPE
  6
BYLAYER
  9
$CECOLOR
 62
   256
  9
$CELTSCALE
 40
1.0
  9
$DELOBJ
 70
     1
  9
$DISPSILH
 70
     0
  9
$DIMSCALE
 40
1.0
  9
$DIMASZ
 40
0.18
  9
$DIMEXO
 40
0.0625
  9
$DIMDLI
 40
0.38
  9
$DIMRND
 40
0.0
  9
$DIMDLE
 40
0.0
  9
$DIMEXE
 40
0.18
  9
$DIMTP
 40
0.0
  9
$DIMTM
 40
0.0
  9
$DIMTXT
 40
0.18
  9
$DIMCEN
 40
0.09
  9
$DIMTSZ
 40
0.0
  9
$DIMTOL
 70
     0
  9
$DIMLIM
 70
     0
  9
$DIMTIH
 70
     1
  9
$DIMTOH
 70
     1
  9
$DIMSE1
 70
     0
  9
$DIMSE2
 70
     0
  9
$DIMTAD
 70
     0
  9
$DIMZIN
 70
     0
  9
$DIMBLK
  1

  9
$DIMASO
 70
     1
  9
$DIMSHO
 70
     1
  9
$DIMPOST
  1

  9
$DIMAPOST
  1

  9
$DIMALT
 70
     0
  9
$DIMALTD
 70
     2
  9
$DIMALTF
 40
25.4
  9
$DIMLFAC
 40
1.0
  9
$DIMTOFL
 70
     0
  9
$DIMTVP
 40
0.0
  9
$DIMTIX
 70
     0
  9
$DIMSOXD
 70
     0
  9
$DIMSAH
 70
     0
  9
$DIMBLK1
  1

  9
$DIMBLK2
  1

  9
$DIMSTYLE
  2
STANDARD
  9
$DIMCLRD
 70
     0
  9
$DIMCLRE
 70
     0
  9
$DIMCLRT
 70
     0
  9
$DIMTFAC
 40
1.0
  9
$DIMGAP
 40
0.09
  9
$DIMJUST
 70
     0
  9
$DIMSD1
 70
     0
  9
$DIMSD2
 70
     0
  9
$DIMTOLJ
 70
     1
  9
$DIMTZIN
 70
     0
  9
$DIMALTZ
 70
     0
  9
$DIMALTTZ
 70
     0
  9
$DIMFIT
 70
     3
  9
$DIMUPT
 70
     0
  9
$DIMUNIT
 70
     2
  9
$DIMDEC
 70
     4
  9
$DIMTDEC
 70
     4
  9
$DIMALTU
 70
     2
  9
$DIMALTTD
 70
     2
  9
$DIMTXSTY
  7
STANDARD
  9
$DIMAUNIT
 70
     0
  9
$LUNITS
 70
     2
  9
$LUPREC
 70
     4
  9
$SKETCHINC
 40
0.1
  9
$FILLETRAD
 40
0.0
  9
$AUNITS
 70
     0
  9
$AUPREC
 70
     0
  9
$MENU
  1
ACAD
  9
$ELEVATION
 40
0.0
  9
$PELEVATION
 40
0.0
  9
$THICKNESS
 40
0.0
  9
$LIMCHECK
 70
     0
  9
$BLIPMODE
 70
     1
  9
$CHAMFERA
 40
0.0
  9
$CHAMFERB
 40
0.0
  9
$CHAMFERC
 40
0.0
  9
$CHAMFERD
 40
0.0
  9
$SKPOLY
 70
     0
  9
$TDCREATE
 40
2453431.000000000
  9
$TDUPDATE
 40
2453575.476495115
  9
$TDINDWG
 40
0.0020570023
  9
$TDUSRTIMER
 40
0.0020567708
  9
$USRTIMER
 70
     1
  9
$ANGBASE
 50
0.0
  9
$ANGDIR
 70
     0
  9
$PDMODE
 70
     0
  9
$PDSIZE
 40
0.0
  9
$PLINEWID
 40
0.0
  9
$COORDS
 70
     0
  9
$SPLFRAME
 70
     0
  9
$SPLINETYPE
 70
     6
  9
$SPLINESEGS
 70
     8
  9
$ATTDIA
 70
     0
  9
$ATTREQ
 70
     1
  9
$HANDLING
 70
 22529
  9
$HANDSEED
  5
1F6
  9
$SURFTAB1
 70
     6
  9
$SURFTAB2
 70
     6
  9
$SURFTYPE
 70
     6
  9
$SURFU
 70
     6
  9
$SURFV
 70
     6
  9
$UCSNAME
  2

  9
$UCSORG
 10
0.0
 20
0.0
 30
0.0
  9
$UCSXDIR
 10
1.0
 20
0.0
 30
0.0
  9
$UCSYDIR
 10
0.0
 20
1.0
 30
0.0
  9
$PUCSNAME
  2

  9
$PUCSORG
 10
0.0
 20
0.0
 30
0.0
  9
$PUCSXDIR
 10
1.0
 20
0.0
 30
0.0
  9
$PUCSYDIR
 10
0.0
 20
1.0
 30
0.0
  9
$USERI1
 70
     0
  9
$USERI2
 70
     0
  9
$USERI3
 70
     0
  9
$USERI4
 70
     0
  9
$USERI5
 70
     0
  9
$USERR1
 40
0.0
  9
$USERR2
 40
0.0
  9
$USERR3
 40
0.0
  9
$USERR4
 40
0.0
  9
$USERR5
 40
0.0
  9
$WORLDVIEW
 70
     1
  9
$SHADEDGE
 70
     3
  9
$SHADEDIF
 70
    70
  9
$TILEMODE
 70
     1
  9
$MAXACTVP
 70
    64
  9
$PINSBASE
 10
0.0
 20
0.0
 30
0.0
  9
$PLIMCHECK
 70
     0
  9
$PEXTMIN
 10
1.000000000000000E+20
 20
1.000000000000000E+20
 30
1.000000000000000E+20
  9
$PEXTMAX
 10
-1.000000000000000E+20
 20
-1.000000000000000E+20
 30
-1.000000000000000E+20
  9
$PLIMMIN
 10
0.0
 20
0.0
  9
$PLIMMAX
 10
12.0
 20
9.0
  9
$UNITMODE
 70
     0
  9
$VISRETAIN
 70
     1
  9
$PLINEGEN
 70
     0
  9
$PSLTSCALE
 70
     1
  9
$TREEDEPTH
 70
  3020
  9
$PICKSTYLE
 70
     3
  9
$CMLSTYLE
  2
STANDARD
  9
$CMLJUST
 70
     0
  9
$CMLSCALE
 40
1.0
  9
$SAVEIMAGES
 70
     1
  0
ENDSEC
  0
SECTION
  2
CLASSES
  0
CLASS
  1
ACDBDICTIONARYWDFLT
  2
AcDbDictionaryWithDefault
  3
AutoCAD 2000
 90
    32768
280
     0
281
     0
  0
CLASS
  1
ACDBPLACEHOLDER
  2
AcDbPlaceHolder
  3
AutoCAD 2000
 90
    32768
280
     0
281
     0
  0
CLASS
  1
LAYOUT
  2
AcDbLayout
  3
AutoCAD 2000
 90
    32768
280
     0
281
     0
  0
CLASS
  1
DICTIONARYVAR
  2
AcDbDictionaryVar
  3
AutoCAD 2000
 90
    32768
280
     0
281
     0
  0
CLASS
  1
LONG_TRANSACTION
  2
AcDbLongTransaction
  3
AutoCAD 2000
 90
    32768
280
     0
281
     0
  0
CLASS
  1
LWPOLYLINE
  2
AcDbPolyline
  3
AutoCAD 2000
 90
    32768
280
     0
281
     1
  0
CLASS
  1
HATCH
  2
AcDbHatch
  3
AutoCAD 2000
 90
    32768
280
     0
281
     1
  0
CLASS
  1
XRECORD
  2
AcDbXrecord
  3
AutoCAD 2000
 90
    32768
280
     0
281
     0
  0
CLASS
  1
LONG_TRANSACTION
  2
AcDbLongTransaction
  3
AutoCAD 2000
 90
    32768
280
     0
281
     0
  0
CLASS
  1
LWPOLYLINE
  2
AcDbPolyline
  3
AutoCAD 2000
 90
    32768
280
     0
281
     1
  0
CLASS
  1
HATCH
  2
AcDbHatch
  3
AutoCAD 2000
 90
    32768
280
     0
281
     1
  0
CLASS
  1
XRECORD
  2
AcDbXrecord
  3
AutoCAD 2000
 90
    32768
280
     0
281
     0
  0
CLASS
  1
LONG_TRANSACTION
  2
AcDbLongTransaction
  3
AutoCAD 2000
 90
    32768
280
     0
281
     0
  0
CLASS
  1
LWPOLYLINE
  2
AcDbPolyline
  3
AutoCAD 2000
 90
    32768
280
     0
281
     1
  0
CLASS
  1
HATCH
  2
AcDbHatch
  3
AutoCAD 2000
 90
    32768
280
     0
281
     1
  0
CLASS
  1
XRECORD
  2
AcDbXrecord
  3
AutoCAD 2000
 90
    32768
280
     0
281
     0
  0
ENDSEC
  0
SECTION
  2
TABLES
  0
TABLE
  2
VPORT
  5
8
330
0
100
AcDbSymbolTable
 70
     2
  0
VPORT
  5
1F3
330
8
100
AcDbSymbolTableRecord
100
AcDbViewportTableRecord
  2
*ACTIVE
 70
     0
 10
0.0
 20
0.0
 11
1.0
 21
1.0
 12
72.25145018770297
 22
49.99740643077231
 13
0.0
 23
0.0
 14
1.0
 24
1.0
 15
0.0
 25
0.0
 16
0.0
 26
0.0
 36
1.0
 17
0.0
 27
0.0
 37
0.0
 40
99.73264448258687
 41
1.458837772397094
 42
50.0
 43
0.0
 44
0.0
 50
0.0
 51
0.0
 71
     0
 72
   100
 73
     1
 74
     1
 75
     0
 76
     0
 77
     0
 78
     0
  0
ENDTAB
  0
TABLE
  2
LTYPE
  5
5
330
0
100
AcDbSymbolTable
 70
     4
  0
LTYPE
  5
13
330
5
100
AcDbSymbolTableRecord
100
AcDbLinetypeTableRecord
  2
BYBLOCK
 70
     0
  3

 72
    65
 73
     0
 40
0.0
  0
LTYPE
  5
14
330
5
100
AcDbSymbolTableRecord
100
AcDbLinetypeTableRecord
  2
BYLAYER
 70
     0
  3

 72
    65
 73
     0
 40
0.0
  0
LTYPE
  5
15
330
5
100
AcDbSymbolTableRecord
100
AcDbLinetypeTableRecord
  2
CONTINUOUS
 70
     0
  3
Solid line
 72
    65
 73
     0
 40
0.0
  0
LTYPE
  5
23
330
5
100
AcDbSymbolTableRecord
100
AcDbLinetypeTableRecord
  2
DASHED
 70
     0
  3
__ __ __ __ __ __ __ __ __ __ __ __ __ __ __
 72
    65
 73
     2
 40
0.75
 49
0.5
 74
     0
 49
-0.25
 74
     0
  0
LTYPE
  5
25
330
5
100
AcDbSymbolTableRecord
100
AcDbLinetypeTableRecord
  2
DOT
 70
     0
  3
...............................................
 72
    65
 73
     2
 40
0.25
 49
0.0
 74
     0
 49
-0.25
 74
     0
  0
LTYPE
  5
28
330
5
100
AcDbSymbolTableRecord
100
AcDbLinetypeTableRecord
  2
CENTER
 70
     0
  3
____ _ ____ _ ____ _ ____ _ ____ _ ____ _ ____ 
 72
    65
 73
     4
 40
2.0
 49
1.25
 74
     0
 49
-0.25
 74
     0
 49
0.25
 74
     0
 49
-0.25
 74
     0
  0
ENDTAB
  0
TABLE
  2
LAYER
  5
2
330
0
100
AcDbSymbolTable
 70
     3
  0
LAYER
  5
10
330
2
100
AcDbSymbolTableRecord
100
AcDbLayerTableRecord
  2
0
 70
     0
 62
     7
  6
CONTINUOUS
  0
LAYER
  5
22
330
2
100
AcDbSymbolTableRecord
100
AcDbLayerTableRecord
  2
CSLAYER1
 70
     0
 62
     7
  6
CONTINUOUS
  0
LAYER
  5
172
330
2
100
AcDbSymbolTableRecord
100
AcDbLayerTableRecord
  2
DEFPOINTS
 70
     0
 62
     7
  6
CONTINUOUS
  0
ENDTAB
  0
TABLE
  2
STYLE
  5
3
330
0
100
AcDbSymbolTable
 70
     3
  0
STYLE
  5
11
330
3
100
AcDbSymbolTableRecord
100
AcDbTextStyleTableRecord
  2
STANDARD
 70
     0
 40
0.0
 41
1.0
 50
0.0
 71
     0
 42
0.2
  3
txt
  4
extfont.shx
  0
STYLE
  5
3A
330
3
100
AcDbSymbolTableRecord
100
AcDbTextStyleTableRecord
  2
FX_FONT
 70
     0
 40
1.0
 41
1.0
 50
0.0
 71
     0
 42
1.0
  3
monotxt
  4
bigfont
  0
STYLE
  5
16A
330
3
100
AcDbSymbolTableRecord
100
AcDbTextStyleTableRecord
  2
GOTHIC
 70
     0
 40
0.0
 41
1.0
 50
0.0
 71
     0
 42
0.2
  3
txt.shx
  4
extfont.shx
  0
ENDTAB
  0
TABLE
  2
VIEW
  5
6
330
0
100
AcDbSymbolTable
 70
     0
  0
ENDTAB
  0
TABLE
  2
UCS
  5
7
330
0
100
AcDbSymbolTable
 70
     0
  0
ENDTAB
  0
TABLE
  2
APPID
  5
9
330
0
100
AcDbSymbolTable
 70
     1
  0
APPID
  5
12
330
9
100
AcDbSymbolTableRecord
100
AcDbRegAppTableRecord
  2
ACAD
 70
     0
  0
ENDTAB
  0
TABLE
  2
DIMSTYLE
  5
A
330
0
100
AcDbSymbolTable
 70
     1
  0
DIMSTYLE
105
167
330
A
100
AcDbSymbolTableRecord
100
AcDbDimStyleTableRecord
  2
STANDARD
 70
     0
  3

  4

  5

  6

  7

 40
1.0
 41
0.18
 42
0.0625
 43
0.38
 44
0.18
 45
0.0
 46
0.0
 47
0.0
 48
0.0
140
0.18
141
0.09
142
0.0
143
25.4
144
1.0
145
0.0
146
1.0
147
0.09
 71
     0
 72
     0
 73
     1
 74
     1
 75
     0
 76
     0
 77
     0
 78
     0
170
     0
171
     2
172
     0
173
     0
174
     0
175
     0
176
     0
177
     0
178
     0
270
     2
271
     4
272
     4
273
     2
274
     2
340
11
275
     0
280
     0
281
     0
282
     0
283
     1
284
     0
285
     0
286
     0
287
     3
288
     0
  0
ENDTAB
  0
TABLE
  2
BLOCK_RECORD
  5
1
330
0
100
AcDbSymbolTable
 70
    16
  0
BLOCK_RECORD
  5
1E
102
{ACAD_XDICTIONARY
360
170
102
}
330
1
100
AcDbSymbolTableRecord
100
AcDbBlockTableRecord
  2
*MODEL_SPACE
  0
BLOCK_RECORD
  5
1A
102
{ACAD_XDICTIONARY
360
16E
102
}
330
1
100
AcDbSymbolTableRecord
100
AcDbBlockTableRecord
  2
*PAPER_SPACE
  0
BLOCK_RECORD
  5
3F
330
1
100
AcDbSymbolTableRecord
100
AcDbBlockTableRecord
  2
FXDIM0000
  0
BLOCK_RECORD
  5
47
330
1
100
AcDbSymbolTableRecord
100
AcDbBlockTableRecord
  2
*D1
  0
BLOCK_RECORD
  5
4E
330
1
100
AcDbSymbolTableRecord
100
AcDbBlockTableRecord
  2
*D2
  0
BLOCK_RECORD
  5
59
330
1
100
AcDbSymbolTableRecord
100
AcDbBlockTableRecord
  2
*D3
  0
BLOCK_RECORD
  5
64
330
1
100
AcDbSymbolTableRecord
100
AcDbBlockTableRecord
  2
*D4
  0
BLOCK_RECORD
  5
6F
330
1
100
AcDbSymbolTableRecord
100
AcDbBlockTableRecord
  2
*D5
  0
BLOCK_RECORD
  5
79
330
1
100
AcDbSymbolTableRecord
100
AcDbBlockTableRecord
  2
*D6
  0
BLOCK_RECORD
  5
84
330
1
100
AcDbSymbolTableRecord
100
AcDbBlockTableRecord
  2
FXDIM0001
  0
BLOCK_RECORD
  5
8E
330
1
100
AcDbSymbolTableRecord
100
AcDbBlockTableRecord
  2
FXDIM0002
  0
BLOCK_RECORD
  5
98
330
1
100
AcDbSymbolTableRecord
100
AcDbBlockTableRecord
  2
*D9
  0
BLOCK_RECORD
  5
A5
330
1
100
AcDbSymbolTableRecord
100
AcDbBlockTableRecord
  2
*D10
  0
BLOCK_RECORD
  5
B0
330
1
100
AcDbSymbolTableRecord
100
AcDbBlockTableRecord
  2
*D11
  0
BLOCK_RECORD
  5
B7
330
1
100
AcDbSymbolTableRecord
100
AcDbBlockTableRecord
  2
*D12
  0
BLOCK_RECORD
  5
C2
330
1
100
AcDbSymbolTableRecord
100
AcDbBlockTableRecord
  2
*D13
  0
BLOCK_RECORD
  5
173
330
1
100
AcDbSymbolTableRecord
100
AcDbBlockTableRecord
  2
*D14
  0
BLOCK_RECORD
  5
182
330
1
100
AcDbSymbolTableRecord
100
AcDbBlockTableRecord
  2
*D15
  0
ENDTAB
  0
ENDSEC
  0
SECTION
  2
BLOCKS
  0
BLOCK
  5
1F
330
1E
100
AcDbEntity
  8
0
100
AcDbBlockBegin
  2
*MODEL_SPACE
 70
     0
 10
0.0
 20
0.0
 30
0.0
  3
*MODEL_SPACE
  1

  0
ENDBLK
  5
20
330
1E
100
AcDbEntity
  8
0
100
AcDbBlockEnd
  0
BLOCK
  5
1B
330
1A
100
AcDbEntity
 67
     1
  8
0
100
AcDbBlockBegin
  2
*PAPER_SPACE
 70
     0
 10
0.0
 20
0.0
 30
0.0
  3
*PAPER_SPACE
  1

  0
ENDBLK
  5
1C
330
1A
100
AcDbEntity
 67
     1
  8
0
100
AcDbBlockEnd
  0
BLOCK
  5
40
330
3F
100
AcDbEntity
  8
0
100
AcDbBlockBegin
  2
FXDIM0000
 70
     0
 10
0.0
 20
0.0
 30
0.0
  3
FXDIM0000
  1

  0
LINE
  5
41
330
3F
100
AcDbEntity
  8
CSLAYER1
  6
CONTINUOUS
 62
     4
100
AcDbLine
 10
148.938842
 20
123.639704
 30
0.0
 11
142.2960779999999
 21
98.84857100000001
 31
0.0
  0
LINE
  5
42
330
3F
100
AcDbEntity
  8
CSLAYER1
  6
CONTINUOUS
 62
     4
100
AcDbLine
 10
148.938842
 20
123.639704
 30
0.0
 11
148.938842
 21
120.639704
 31
0.0
  0
LINE
  5
43
330
3F
100
AcDbEntity
  8
CSLAYER1
  6
CONTINUOUS
 62
     4
100
AcDbLine
 10
148.938842
 20
123.639704
 30
0.0
 11
147.4388419999999
 21
121.041628
 31
0.0
  0
LINE
  5
44
330
3F
100
AcDbEntity
  8
CSLAYER1
  6
CONTINUOUS
 62
     4
100
AcDbLine
 10
142.2960779999999
 20
98.84857100000001
 30
0.0
 11
128.296078
 21
98.84857100000001
 31
0.0
  0
TEXT
  5
45
330
3F
100
AcDbEntity
  8
CSLAYER1
 62
     4
100
AcDbText
 10
129.090912
 20
99.848572
 30
0.0
 40
3.0
  1
%%c4.1
 41
1.142857142857142
 51
15.0
  7
FX_FONT
 72
     5
 11
141.090912
 21
99.848572
 31
0.0
100
AcDbText
  0
ENDBLK
  5
46
330
3F
100
AcDbEntity
  8
0
100
AcDbBlockEnd
  0
BLOCK
  5
48
330
47
100
AcDbEntity
  8
0
100
AcDbBlockBegin
  2
*D1
 70
     1
 10
0.0
 20
0.0
 30
0.0
  3
*D1
  1

  0
TEXT
  5
49
330
47
100
AcDbEntity
  8
CSLAYER1
 62
     4
100
AcDbText
 10
121.5862629999999
 20
127.630599
 30
0.0
 40
3.0
  1
R25
 50
64.82131559562822
 41
1.12500006596816
 51
15.0
  7
FX_FONT
 72
     5
 11
125.4152469999999
 21
135.7754679999999
 31
0.0
100
AcDbText
  0
LINE
  5
4A
330
47
100
AcDbEntity
  8
CSLAYER1
  6
CONTINUOUS
 62
     4
100
AcDbLine
 10
117.3884719999999
 20
116.350731
 30
0.0
 11
126.447136
 21
135.6199739999997
 31
0.0
  0
LINE
  5
4B
330
47
100
AcDbEntity
  8
CSLAYER1
  6
CONTINUOUS
 62
     4
100
AcDbLine
 10
117.3884719999999
 20
116.350731
 30
0.0
 11
117.9186279999999
 21
119.3035149999999
 31
0.0
  0
LINE
  5
4C
330
47
100
AcDbEntity
  8
CSLAYER1
  6
CONTINUOUS
 62
     4
100
AcDbLine
 10
117.3884719999999
 20
116.350731
 30
0.0
 11
119.3239929999997
 21
118.6428389999999
 31
0.0
  0
ENDBLK
  5
4D
330
47
100
AcDbEntity
  8
0
100
AcDbBlockEnd
  0
BLOCK
  5
4F
330
4E
100
AcDbEntity
  8
0
100
AcDbBlockBegin
  2
*D2
 70
     1
 10
0.0
 20
0.0
 30
0.0
  3
*D2
  1

  0
TEXT
  5
50
330
4E
100
AcDbEntity
  8
CSLAYER1
 62
     4
100
AcDbText
 10
90.14543899999999
 20
117.100006
 30
0.0
 40
3.0
  1
14.5~16
 50
90.0
 41
1.05
 51
15.0
  7
FX_FONT
 72
     5
 11
90.14543899999999
 21
138.100006
 31
0.0
100
AcDbText
  0
LINE
  5
51
330
4E
100
AcDbEntity
  8
CSLAYER1
  6
CONTINUOUS
 62
     4
100
AcDbLine
 10
138.060606
 20
111.5999999999999
 30
0.0
 11
90.145455
 21
111.5999999999999
 31
0.0
  0
LINE
  5
52
330
4E
100
AcDbEntity
  8
CSLAYER1
  6
CONTINUOUS
 62
     4
100
AcDbLine
 10
137.6545449999997
 20
143.5999999999999
 30
0.0
 11
90.145455
 21
143.5999999999999
 31
0.0
  0
LINE
  5
53
330
4E
100
AcDbEntity
  8
CSLAYER1
  6
CONTINUOUS
 62
     4
100
AcDbLine
 10
91.145455
 20
111.5999999999999
 30
0.0
 11
91.145455
 21
143.5999999999999
 31
0.0
  0
LINE
  5
54
330
4E
100
AcDbEntity
  8
CSLAYER1
  6
CONTINUOUS
 62
     4
100
AcDbLine
 10
91.145455
 20
111.5999999999999
 30
0.0
 11
90.36899699999999
 21
114.497777
 31
0.0
  0
LINE
  5
55
330
4E
100
AcDbEntity
  8
CSLAYER1
  6
CONTINUOUS
 62
     4
100
AcDbLine
 10
91.145455
 20
111.5999999999999
 30
0.0
 11
91.92191200000001
 21
114.497777
 31
0.0
  0
LINE
  5
56
330
4E
100
AcDbEntity
  8
CSLAYER1
  6
CONTINUOUS
 62
     4
100
AcDbLine
 10
91.145455
 20
143.5999999999999
 30
0.0
 11
90.36899699999999
 21
140.702223
 31
0.0
  0
LINE
  5
57
330
4E
100
AcDbEntity
  8
CSLAYER1
  6
CONTINUOUS
 62
     4
100
AcDbLine
 10
91.145455
 20
143.5999999999999
 30
0.0
 11
91.92191200000001
 21
140.702223
 31
0.0
  0
ENDBLK
  5
58
330
4E
100
AcDbEntity
  8
0
100
AcDbBlockEnd
  0
BLOCK
  5
5A
330
59
100
AcDbEntity
  8
0
100
AcDbBlockBegin
  2
*D3
 70
     1
 10
0.0
 20
0.0
 30
0.0
  3
*D3
  1

  0
TEXT
  5
5B
330
59
100
AcDbEntity
  8
CSLAYER1
 62
     4
100
AcDbText
 10
133.500031
 20
83.83805799999997
 30
0.0
 40
3.0
  1
10.5
 41
1.09090909090909
 51
15.0
  7
FX_FONT
 72
     5
 11
145.500031
 21
83.83805799999997
 31
0.0
100
AcDbText
  0
LINE
  5
5C
330
59
100
AcDbEntity
  8
CSLAYER1
  6
CONTINUOUS
 62
     4
100
AcDbLine
 10
129.0
 20
75.59999999999998
 30
0.0
 11
129.0
 21
83.83806599999997
 31
0.0
  0
LINE
  5
5D
330
59
100
AcDbEntity
  8
CSLAYER1
  6
CONTINUOUS
 62
     4
100
AcDbLine
 10
150.0
 20
81.57428600000001
 30
0.0
 11
150.0
 21
83.83806599999997
 31
0.0
  0
LINE
  5
5E
330
59
100
AcDbEntity
  8
CSLAYER1
  6
CONTINUOUS
 62
     4
100
AcDbLine
 10
129.0
 20
82.838066
 30
0.0
 11
150.0
 21
82.838066
 31
0.0
  0
LINE
  5
5F
330
59
100
AcDbEntity
  8
CSLAYER1
  6
CONTINUOUS
 62
     4
100
AcDbLine
 10
129.0
 20
82.838066
 30
0.0
 11
131.8977769999999
 21
83.61452299999998
 31
0.0
  0
LINE
  5
60
330
59
100
AcDbEntity
  8
CSLAYER1
  6
CONTINUOUS
 62
     4
100
AcDbLine
 10
129.0
 20
82.838066
 30
0.0
 11
131.8977769999999
 21
82.06160899999998
 31
0.0
  0
LINE
  5
61
330
59
100
AcDbEntity
  8
CSLAYER1
  6
CONTINUOUS
 62
     4
100
AcDbLine
 10
150.0
 20
82.838066
 30
0.0
 11
147.102223
 21
83.61452299999998
 31
0.0
  0
LINE
  5
62
330
59
100
AcDbEntity
  8
CSLAYER1
  6
CONTINUOUS
 62
     4
100
AcDbLine
 10
150.0
 20
82.838066
 30
0.0
 11
147.102223
 21
82.06160899999998
 31
0.0
  0
ENDBLK
  5
63
330
59
100
AcDbEntity
  8
0
100
AcDbBlockEnd
  0
BLOCK
  5
65
330
64
100
AcDbEntity
  8
0
100
AcDbBlockBegin
  2
*D4
 70
     1
 10
0.0
 20
0.0
 30
0.0
  3
*D4
  1

  0
TEXT
  5
66
330
64
100
AcDbEntity
  8
CSLAYER1
 62
     4
100
AcDbText
 10
133.500031
 20
51.64954
 30
0.0
 40
3.0
  1
10.5
 41
1.09090909090909
 51
15.0
  7
FX_FONT
 72
     5
 11
145.500031
 21
51.64954
 31
0.0
100
AcDbText
  0
LINE
  5
67
330
64
100
AcDbEntity
  8
CSLAYER1
  6
CONTINUOUS
 62
     4
100
AcDbLine
 10
129.0
 20
59.6
 30
0.0
 11
129.0
 21
49.649549
 31
0.0
  0
LINE
  5
68
330
64
100
AcDbEntity
  8
CSLAYER1
  6
CONTINUOUS
 62
     4
100
AcDbLine
 10
150.0
 20
54.62285699999998
 30
0.0
 11
150.0
 21
49.649549
 31
0.0
  0
LINE
  5
69
330
64
100
AcDbEntity
  8
CSLAYER1
  6
CONTINUOUS
 62
     4
100
AcDbLine
 10
129.0
 20
50.649549
 30
0.0
 11
150.0
 21
50.649549
 31
0.0
  0
LINE
  5
6A
330
64
100
AcDbEntity
  8
CSLAYER1
  6
CONTINUOUS
 62
     4
100
AcDbLine
 10
129.0
 20
50.649549
 30
0.0
 11
131.8977769999999
 21
51.426006
 31
0.0
  0
LINE
  5
6B
330
64
100
AcDbEntity
  8
CSLAYER1
  6
CONTINUOUS
 62
     4
100
AcDbLine
 10
129.0
 20
50.649549
 30
0.0
 11
131.8977769999999
 21
49.873091
 31
0.0
  0
LINE
  5
6C
330
64
100
AcDbEntity
  8
CSLAYER1
  6
CONTINUOUS
 62
     4
100
AcDbLine
 10
150.0
 20
50.649549
 30
0.0
 11
147.102223
 21
51.426006
 31
0.0
  0
LINE
  5
6D
330
64
100
AcDbEntity
  8
CSLAYER1
  6
CONTINUOUS
 62
     4
100
AcDbLine
 10
150.0
 20
50.649549
 30
0.0
 11
147.102223
 21
49.873091
 31
0.0
  0
ENDBLK
  5
6E
330
64
100
AcDbEntity
  8
0
100
AcDbBlockEnd
  0
BLOCK
  5
70
330
6F
100
AcDbEntity
  8
0
100
AcDbBlockBegin
  2
*D5
 70
     1
 10
0.0
 20
0.0
 30
0.0
  3
*D5
  1

  0
TEXT
  5
71
330
6F
100
AcDbEntity
  8
CSLAYER1
 62
     4
100
AcDbText
 10
43.917464
 20
154.989437
 30
0.0
 40
3.0
  1
35%%d
 50
342.5000020357888
 41
1.285714337707245
 51
15.0
  7
FX_FONT
 72
     5
 11
52.500917
 21
152.283085
 31
0.0
100
AcDbText
  0
ARC
  5
72
330
6F
100
AcDbEntity
  8
CSLAYER1
  6
CONTINUOUS
 62
     4
100
AcDbCircle
 10
40.0
 20
127.6
 30
0.0
 40
26.299769
100
AcDbArc
 50
55.0
 51
90.0
  0
LINE
  5
73
330
6F
100
AcDbEntity
  8
CSLAYER1
  6
CONTINUOUS
 62
     4
100
AcDbLine
 10
55.084928
 20
149.14351
 30
0.0
 11
52.26585
 21
150.1695699999999
 31
0.0
  0
LINE
  5
74
330
6F
100
AcDbEntity
  8
CSLAYER1
  6
CONTINUOUS
 62
     4
100
AcDbLine
 10
55.084928
 20
149.14351
 30
0.0
 11
53.156565
 21
151.4416429999999
 31
0.0
  0
LINE
  5
75
330
6F
100
AcDbEntity
  8
CSLAYER1
  6
CONTINUOUS
 62
     4
100
AcDbLine
 10
40.0
 20
153.8997689999999
 30
0.0
 11
42.89777700000001
 21
154.676226
 31
0.0
  0
LINE
  5
76
330
6F
100
AcDbEntity
  8
CSLAYER1
  6
CONTINUOUS
 62
     4
100
AcDbLine
 10
40.0
 20
153.8997689999999
 30
0.0
 11
42.89777700000001
 21
153.123312
 31
0.0
  0
LINE
  5
77
330
6F
100
AcDbEntity
  8
CSLAYER1
  6
CONTINUOUS
 62
     4
100
AcDbLine
 10
50.573576
 20
142.700632
 30
0.0
 11
55.658504
 21
149.962662
 31
0.0
  0
ENDBLK
  5
78
330
6F
100
AcDbEntity
  8
0
100
AcDbBlockEnd
  0
BLOCK
  5
7A
330
79
100
AcDbEntity
  8
0
100
AcDbBlockBegin
  2
*D6
 70
     1
 10
0.0
 20
0.0
 30
0.0
  3
*D6
  1

  0
TEXT
  5
7B
330
79
100
AcDbEntity
  8
CSLAYER1
 62
     4
100
AcDbText
 10
108.359348
 20
50.772965
 30
0.0
 40
3.0
  1
15%%d
 50
82.49999767052699
 41
1.285714184188132
 51
15.0
  7
FX_FONT
 72
     5
 11
109.534084
 21
59.69596800000001
 31
0.0
100
AcDbText
  0
ARC
  5
7C
330
79
100
AcDbEntity
  8
CSLAYER1
  6
CONTINUOUS
 62
     4
100
AcDbCircle
 10
129.0
 20
60.6
 30
0.0
 40
18.48353299999998
100
AcDbArc
 50
150.0
 51
165.0
  0
LINE
  5
7D
330
79
100
AcDbEntity
  8
CSLAYER1
  6
CONTINUOUS
 62
     4
100
AcDbLine
 10
111.146278
 20
65.38389000000001
 30
0.0
 11
111.146278
 21
68.38389000000001
 31
0.0
  0
LINE
  5
7E
330
79
100
AcDbEntity
  8
CSLAYER1
  6
CONTINUOUS
 62
     4
100
AcDbLine
 10
111.146278
 20
65.38389000000001
 30
0.0
 11
112.646278
 21
67.981967
 31
0.0
  0
ARC
  5
7F
330
79
100
AcDbEntity
  8
CSLAYER1
  6
CONTINUOUS
 62
     4
100
AcDbCircle
 10
129.0
 20
60.6
 30
0.0
 40
18.48353299999998
100
AcDbArc
 50
180.0
 51
195.0
  0
LINE
  5
80
330
79
100
AcDbEntity
  8
CSLAYER1
  6
CONTINUOUS
 62
     4
100
AcDbLine
 10
110.5164669999999
 20
60.6
 30
0.0
 11
109.74001
 21
57.702223
 31
0.0
  0
LINE
  5
81
330
79
100
AcDbEntity
  8
CSLAYER1
  6
CONTINUOUS
 62
     4
100
AcDbLine
 10
110.5164669999999
 20
60.6
 30
0.0
 11
111.2929239999999
 21
57.702223
 31
0.0
  0
ARC
  5
82
330
79
100
AcDbEntity
  8
CSLAYER1
  6
CONTINUOUS
 62
     4
100
AcDbCircle
 10
129.0
 20
60.6
 30
0.0
 40
18.48353299999998
100
AcDbArc
 50
165.0
 51
180.0
  0
ENDBLK
  5
83
330
79
100
AcDbEntity
  8
0
100
AcDbBlockEnd
  0
BLOCK
  5
85
330
84
100
AcDbEntity
  8
0
100
AcDbBlockBegin
  2
FXDIM0001
 70
     0
 10
0.0
 20
0.0
 30
0.0
  3
FXDIM0001
  1

  0
LINE
  5
86
330
84
100
AcDbEntity
  8
CSLAYER1
  6
CONTINUOUS
 62
     4
100
AcDbLine
 10
157.0
 20
74.59999999999998
 30
0.0
 11
159.0
 21
78.06410200000001
 31
0.0
  0
LINE
  5
87
330
84
100
AcDbEntity
  8
CSLAYER1
  6
CONTINUOUS
 62
     4
100
AcDbLine
 10
155.0
 20
78.06410200000001
 30
0.0
 11
167.0
 21
78.06410200000001
 31
0.0
  0
LINE
  5
88
330
84
100
AcDbEntity
  8
CSLAYER1
  6
CONTINUOUS
 62
     4
100
AcDbLine
 10
155.0
 20
78.06410200000001
 30
0.0
 11
157.0
 21
74.59999999999998
 31
0.0
  0
LINE
  5
89
330
84
100
AcDbEntity
  8
CSLAYER1
  6
CONTINUOUS
 62
     4
100
AcDbLine
 10
161.0
 20
74.59999999999998
 30
0.0
 11
163.0
 21
78.06410200000001
 31
0.0
  0
LINE
  5
8A
330
84
100
AcDbEntity
  8
CSLAYER1
  6
CONTINUOUS
 62
     4
100
AcDbLine
 10
159.0
 20
78.06410200000001
 30
0.0
 11
161.0
 21
74.59999999999998
 31
0.0
  0
LINE
  5
8B
330
84
100
AcDbEntity
  8
CSLAYER1
  6
CONTINUOUS
 62
     4
100
AcDbLine
 10
165.0
 20
74.59999999999998
 30
0.0
 11
167.0
 21
78.06410200000001
 31
0.0
  0
LINE
  5
8C
330
84
100
AcDbEntity
  8
CSLAYER1
  6
CONTINUOUS
 62
     4
100
AcDbLine
 10
163.0
 20
78.06410200000001
 30
0.0
 11
165.0
 21
74.59999999999998
 31
0.0
  0
ENDBLK
  5
8D
330
84
100
AcDbEntity
  8
0
100
AcDbBlockEnd
  0
BLOCK
  5
8F
330
8E
100
AcDbEntity
  8
0
100
AcDbBlockBegin
  2
FXDIM0002
 70
     0
 10
0.0
 20
0.0
 30
0.0
  3
FXDIM0002
  1

  0
LINE
  5
90
330
8E
100
AcDbEntity
  8
CSLAYER1
  6
CONTINUOUS
 62
     4
100
AcDbLine
 10
157.6
 20
60.6
 30
0.0
 11
155.6
 21
57.135898
 31
0.0
  0
LINE
  5
91
330
8E
100
AcDbEntity
  8
CSLAYER1
  6
CONTINUOUS
 62
     4
100
AcDbLine
 10
155.6
 20
57.135898
 30
0.0
 11
167.5999999999999
 21
57.135898
 31
0.0
  0
LINE
  5
92
330
8E
100
AcDbEntity
  8
CSLAYER1
  6
CONTINUOUS
 62
     4
100
AcDbLine
 10
159.6
 20
57.135898
 30
0.0
 11
157.6
 21
60.6
 31
0.0
  0
LINE
  5
93
330
8E
100
AcDbEntity
  8
CSLAYER1
  6
CONTINUOUS
 62
     4
100
AcDbLine
 10
161.5999999999999
 20
60.6
 30
0.0
 11
159.6
 21
57.135898
 31
0.0
  0
LINE
  5
94
330
8E
100
AcDbEntity
  8
CSLAYER1
  6
CONTINUOUS
 62
     4
100
AcDbLine
 10
163.5999999999999
 20
57.135898
 30
0.0
 11
161.5999999999999
 21
60.6
 31
0.0
  0
LINE
  5
95
330
8E
100
AcDbEntity
  8
CSLAYER1
  6
CONTINUOUS
 62
     4
100
AcDbLine
 10
165.5999999999997
 20
60.6
 30
0.0
 11
163.5999999999999
 21
57.135898
 31
0.0
  0
LINE
  5
96
330
8E
100
AcDbEntity
  8
CSLAYER1
  6
CONTINUOUS
 62
     4
100
AcDbLine
 10
167.5999999999999
 20
57.135898
 30
0.0
 11
165.5999999999997
 21
60.6
 31
0.0
  0
ENDBLK
  5
97
330
8E
100
AcDbEntity
  8
0
100
AcDbBlockEnd
  0
BLOCK
  5
99
330
98
100
AcDbEntity
  8
0
100
AcDbBlockBegin
  2
*D9
 70
     1
 10
0.0
 20
0.0
 30
0.0
  3
*D9
  1

  0
TEXT
  5
9A
330
98
100
AcDbEntity
  8
CSLAYER1
 62
     4
100
AcDbText
 10
90.52868700000001
 20
66.654831
 30
0.0
 40
3.0
  1
7  
 50
90.0
 41
1.363636363636363
 51
15.0
  7
FX_FONT
 72
     5
 11
90.52868700000001
 21
75.654831
 31
0.0
100
AcDbText
  0
TEXT
  5
9B
330
98
100
AcDbEntity
  8
CSLAYER1
 62
     4
100
AcDbText
 10
89.028687
 20
75.654831
 30
0.0
 40
1.5
  1
  0
 50
90.0
 41
1.607142857142857
 51
15.0
  7
FX_FONT
 72
     5
 11
89.028687
 21
80.154831
 31
0.0
100
AcDbText
  0
TEXT
  5
9C
330
98
100
AcDbEntity
  8
CSLAYER1
 62
     4
100
AcDbText
 10
90.52868700000001
 20
75.654831
 30
0.0
 40
1.5
  1
-0.15
 50
90.0
 41
1.071428571428569
 51
15.0
  7
FX_FONT
 72
     5
 11
90.52868700000001
 21
83.15483099999999
 31
0.0
100
AcDbText
  0
LINE
  5
9D
330
98
100
AcDbEntity
  8
CSLAYER1
  6
CONTINUOUS
 62
     4
100
AcDbLine
 10
91.528684
 20
60.6
 30
0.0
 11
91.528684
 21
74.59999999999998
 31
0.0
  0
LINE
  5
9E
330
98
100
AcDbEntity
  8
CSLAYER1
  6
CONTINUOUS
 62
     4
100
AcDbLine
 10
91.528684
 20
60.6
 30
0.0
 11
90.75222700000001
 21
63.497777
 31
0.0
  0
LINE
  5
9F
330
98
100
AcDbEntity
  8
CSLAYER1
  6
CONTINUOUS
 62
     4
100
AcDbLine
 10
91.528684
 20
60.6
 30
0.0
 11
92.305142
 21
63.497777
 31
0.0
  0
LINE
  5
A0
330
98
100
AcDbEntity
  8
CSLAYER1
  6
CONTINUOUS
 62
     4
100
AcDbLine
 10
91.528684
 20
74.59999999999998
 30
0.0
 11
90.75222700000001
 21
71.702223
 31
0.0
  0
LINE
  5
A1
330
98
100
AcDbEntity
  8
CSLAYER1
  6
CONTINUOUS
 62
     4
100
AcDbLine
 10
91.528684
 20
74.59999999999998
 30
0.0
 11
92.305142
 21
71.702223
 31
0.0
  0
LINE
  5
A2
330
98
100
AcDbEntity
  8
CSLAYER1
  6
CONTINUOUS
 62
     4
100
AcDbLine
 10
127.0
 20
60.6
 30
0.0
 11
89.52868399999998
 21
60.6
 31
0.0
  0
LINE
  5
A3
330
98
100
AcDbEntity
  8
CSLAYER1
  6
CONTINUOUS
 62
     4
100
AcDbLine
 10
127.0
 20
74.59999999999998
 30
0.0
 11
89.52868399999998
 21
74.59999999999998
 31
0.0
  0
ENDBLK
  5
A4
330
98
100
AcDbEntity
  8
0
100
AcDbBlockEnd
  0
BLOCK
  5
A6
330
A5
100
AcDbEntity
  8
0
100
AcDbBlockBegin
  2
*D10
 70
     1
 10
0.0
 20
0.0
 30
0.0
  3
*D10
  1

  0
TEXT
  5
A7
330
A5
100
AcDbEntity
  8
CSLAYER1
 62
     4
100
AcDbText
 10
123.0
 20
165.6977689999999
 30
0.0
 40
3.0
  1
24
 41
1.2
 51
15.0
  7
FX_FONT
 72
     5
 11
129.0
 21
165.6977689999999
 31
0.0
100
AcDbText
  0
LINE
  5
A8
330
A5
100
AcDbEntity
  8
CSLAYER1
  6
CONTINUOUS
 62
     4
100
AcDbLine
 10
102.0
 20
164.697773
 30
0.0
 11
150.0
 21
164.697773
 31
0.0
  0
LINE
  5
A9
330
A5
100
AcDbEntity
  8
CSLAYER1
  6
CONTINUOUS
 62
     4
100
AcDbLine
 10
102.0
 20
164.697773
 30
0.0
 11
104.897777
 21
165.47423
 31
0.0
  0
LINE
  5
AA
330
A5
100
AcDbEntity
  8
CSLAYER1
  6
CONTINUOUS
 62
     4
100
AcDbLine
 10
102.0
 20
164.697773
 30
0.0
 11
104.897777
 21
163.9213159999999
 31
0.0
  0
LINE
  5
AB
330
A5
100
AcDbEntity
  8
CSLAYER1
  6
CONTINUOUS
 62
     4
100
AcDbLine
 10
150.0
 20
164.697773
 30
0.0
 11
147.102223
 21
165.47423
 31
0.0
  0
LINE
  5
AC
330
A5
100
AcDbEntity
  8
CSLAYER1
  6
CONTINUOUS
 62
     4
100
AcDbLine
 10
150.0
 20
164.697773
 30
0.0
 11
147.102223
 21
163.9213159999999
 31
0.0
  0
LINE
  5
AD
330
A5
100
AcDbEntity
  8
CSLAYER1
  6
CONTINUOUS
 62
     4
100
AcDbLine
 10
102.0
 20
129.6
 30
0.0
 11
102.0
 21
166.697773
 31
0.0
  0
LINE
  5
AE
330
A5
100
AcDbEntity
  8
CSLAYER1
  6
CONTINUOUS
 62
     4
100
AcDbLine
 10
150.0
 20
150.9129439999999
 30
0.0
 11
150.0
 21
166.697773
 31
0.0
  0
ENDBLK
  5
AF
330
A5
100
AcDbEntity
  8
0
100
AcDbBlockEnd
  0
BLOCK
  5
B1
330
B0
100
AcDbEntity
  8
0
100
AcDbBlockBegin
  2
*D11
 70
     1
 10
0.0
 20
0.0
 30
0.0
  3
*D11
  1

  0
TEXT
  5
B2
330
B0
100
AcDbEntity
  8
CSLAYER1
 62
     4
100
AcDbText
 10
48.03532
 20
117.976347
 30
0.0
 40
3.0
  1
R45
 50
7.390843771213408
 41
1.124999925801252
 51
15.0
  7
FX_FONT
 72
     5
 11
56.96054499999998
 21
119.134081
 31
0.0
100
AcDbText
  0
LINE
  5
B3
330
B0
100
AcDbEntity
  8
CSLAYER1
  6
CONTINUOUS
 62
     4
100
AcDbLine
 10
40.747743
 20
116.022665
 30
0.0
 11
64.505394
 21
119.104383
 31
0.0
  0
LINE
  5
B4
330
B0
100
AcDbEntity
  8
CSLAYER1
  6
CONTINUOUS
 62
     4
100
AcDbLine
 10
40.747743
 20
116.022665
 30
0.0
 11
43.521564
 21
117.165432
 31
0.0
  0
LINE
  5
B5
330
B0
100
AcDbEntity
  8
CSLAYER1
  6
CONTINUOUS
 62
     4
100
AcDbLine
 10
40.747743
 20
116.022665
 30
0.0
 11
43.721327
 21
115.62542
 31
0.0
  0
ENDBLK
  5
B6
330
B0
100
AcDbEntity
  8
0
100
AcDbBlockEnd
  0
BLOCK
  5
B8
330
B7
100
AcDbEntity
  8
0
100
AcDbBlockBegin
  2
*D12
 70
     1
 10
0.0
 20
0.0
 30
0.0
  3
*D12
  1

  0
TEXT
  5
B9
330
B7
100
AcDbEntity
  8
CSLAYER1
 62
     4
100
AcDbText
 10
27.240408
 20
28.390177
 30
0.0
 40
3.0
  1
4
 50
90.0
 41
1.5
 51
15.0
  7
FX_FONT
 72
     5
 11
27.240408
 21
31.390177
 31
0.0
100
AcDbText
  0
LINE
  5
BA
330
B7
100
AcDbEntity
  8
CSLAYER1
  6
CONTINUOUS
 62
     4
100
AcDbLine
 10
28.240408
 20
25.890176
 30
0.0
 11
28.240408
 21
33.890176
 31
0.0
  0
LINE
  5
BB
330
B7
100
AcDbEntity
  8
CSLAYER1
  6
CONTINUOUS
 62
     4
100
AcDbLine
 10
28.240408
 20
25.890176
 30
0.0
 11
27.463951
 21
28.78795399999999
 31
0.0
  0
LINE
  5
BC
330
B7
100
AcDbEntity
  8
CSLAYER1
  6
CONTINUOUS
 62
     4
100
AcDbLine
 10
28.240408
 20
25.890176
 30
0.0
 11
29.016865
 21
28.78795399999999
 31
0.0
  0
LINE
  5
BD
330
B7
100
AcDbEntity
  8
CSLAYER1
  6
CONTINUOUS
 62
     4
100
AcDbLine
 10
28.240408
 20
33.890176
 30
0.0
 11
27.463951
 21
30.992399
 31
0.0
  0
LINE
  5
BE
330
B7
100
AcDbEntity
  8
CSLAYER1
  6
CONTINUOUS
 62
     4
100
AcDbLine
 10
28.240408
 20
33.890176
 30
0.0
 11
29.016865
 21
30.992399
 31
0.0
  0
LINE
  5
BF
330
B7
100
AcDbEntity
  8
CSLAYER1
  6
CONTINUOUS
 62
     4
100
AcDbLine
 10
34.55127199999999
 20
25.890176
 30
0.0
 11
26.240408
 21
25.890176
 31
0.0
  0
LINE
  5
C0
330
B7
100
AcDbEntity
  8
CSLAYER1
  6
CONTINUOUS
 62
     4
100
AcDbLine
 10
34.55127199999999
 20
33.890176
 30
0.0
 11
26.240408
 21
33.890176
 31
0.0
  0
ENDBLK
  5
C1
330
B7
100
AcDbEntity
  8
0
100
AcDbBlockEnd
  0
BLOCK
  5
C3
330
C2
100
AcDbEntity
  8
0
100
AcDbBlockBegin
  2
*D13
 70
     1
 10
0.0
 20
0.0
 30
0.0
  3
*D13
  1

  0
TEXT
  5
C4
330
C2
100
AcDbEntity
  8
CSLAYER1
 62
     4
100
AcDbText
 10
94.87733699999999
 20
49.831311
 30
0.0
 40
3.0
  1
切刃部有効11.5
 50
344.9999982264591
 41
0.9310344794209672
 51
15.0
  7
FX_FONT
 72
     5
 11
120.957334
 21
42.84319599999999
 31
0.0
100
AcDbText
  0
LINE
  5
C5
330
C2
100
AcDbEntity
  8
CSLAYER1
  6
CONTINUOUS
 62
     4
100
AcDbLine
 10
98.21271500000001
 20
53.700287
 30
0.0
 11
120.429009
 21
47.74744899999999
 31
0.0
  0
LINE
  5
C6
330
C2
100
AcDbEntity
  8
CSLAYER1
  6
CONTINUOUS
 62
     4
100
AcDbLine
 10
98.21271500000001
 20
53.700287
 30
0.0
 11
101.2127149999999
 21
53.700287
 31
0.0
  0
LINE
  5
C7
330
C2
100
AcDbEntity
  8
CSLAYER1
  6
CONTINUOUS
 62
     4
100
AcDbLine
 10
98.21271500000001
 20
53.700287
 30
0.0
 11
100.810791
 21
52.200287
 31
0.0
  0
LINE
  5
C8
330
C2
100
AcDbEntity
  8
CSLAYER1
  6
CONTINUOUS
 62
     4
100
AcDbLine
 10
120.429009
 20
47.74744899999999
 30
0.0
 11
117.429009
 21
47.74744899999999
 31
0.0
  0
LINE
  5
C9
330
C2
100
AcDbEntity
  8
CSLAYER1
  6
CONTINUOUS
 62
     4
100
AcDbLine
 10
120.429009
 20
47.74744899999999
 30
0.0
 11
117.830932
 21
49.247449
 31
0.0
  0
LINE
  5
CA
330
C2
100
AcDbEntity
  8
CSLAYER1
  6
CONTINUOUS
 62
     4
100
AcDbLine
 10
101.482362
 20
65.902777
 30
0.0
 11
97.695077
 21
51.768435
 31
0.0
  0
LINE
  5
CB
330
C2
100
AcDbEntity
  8
CSLAYER1
  6
CONTINUOUS
 62
     4
100
AcDbLine
 10
123.698656
 20
59.949939
 30
0.0
 11
119.9113709999999
 21
45.81559699999998
 31
0.0
  0
ENDBLK
  5
CC
330
C2
100
AcDbEntity
  8
0
100
AcDbBlockEnd
  0
BLOCK
  5
180
330
173
100
AcDbEntity
  8
0
100
AcDbBlockBegin
  2
*D14
 70
     1
 10
0.0
 20
0.0
 30
0.0
  3
*D14
  1

  0
LINE
  5
174
330
173
100
AcDbEntity
  8
CSLAYER1
 62
     0
100
AcDbLine
 10
49.46227252842675
 20
141.1135250019593
 30
0.0
 11
55.18817229233675
 21
149.2909569440064
 31
0.0
  0
LINE
  5
175
330
173
100
AcDbEntity
  8
CSLAYER1
 62
     0
100
AcDbLine
 10
39.99999999999999
 20
144.0969679999999
 30
0.0
 11
40.0
 21
154.0797694613915
 31
0.0
  0
ARC
  5
176
330
173
100
AcDbEntity
  8
CSLAYER1
 62
     0
100
AcDbCircle
 10
39.99999999999998
 20
127.5999999999999
 30
0.0
 40
26.2997694613916
100
AcDbArc
 50
55.39214132530499
 51
71.63444355767571
  0
ARC
  5
177
330
173
100
AcDbEntity
  8
CSLAYER1
 62
     0
100
AcDbCircle
 10
39.99999999999998
 20
127.5999999999999
 30
0.0
 40
26.2997694613916
100
AcDbArc
 50
73.36145148480348
 51
89.60785738229636
  0
SOLID
  5
178
330
173
100
AcDbEntity
  8
CSLAYER1
 62
     0
100
AcDbTrace
 10
54.95425181613086
 20
149.2708814603864
 30
0.0
 11
54.92000562273612
 21
149.2216148567084
 31
0.0
 12
55.08492853046764
 22
149.1435095783631
 32
0.0
 13
55.08492853046764
 23
149.1435095783631
 33
0.0
  0
SOLID
  5
179
330
173
100
AcDbEntity
  8
CSLAYER1
 62
     0
100
AcDbTrace
 10
40.17989628354118
 20
153.8691536620706
 30
0.0
 11
40.18010160853492
 21
153.9291533107499
 31
0.0
 12
39.99999999999996
 22
153.8997694613915
 32
0.0
 13
39.99999999999996
 23
153.8997694613915
 33
0.0
  0
MTEXT
  5
17A
330
173
100
AcDbEntity
  8
CSLAYER1
 62
     0
100
AcDbMText
 10
47.90849348555432
 20
152.682535846905
 30
0.0
 40
0.18
 41
0.0
 71
     5
 72
     1
  1
\A1;35°
1001
ACAD
1000
MTEXTBEGIN
1070
    73
1070
     1
1070
    44
1040
1.0
1070
    74
1070
     0
1000
MTEXTEND
1000
MTEXTBEGIN
1070
    73
1070
     1
1070
    44
1040
1.0
1070
    74
1070
     0
1000
MTEXTEND
  0
POINT
  5
17B
330
173
100
AcDbEntity
  8
DEFPOINTS
 62
     0
100
AcDbPoint
 10
50.41680689829622
 20
151.7488717700423
 30
0.0
  0
POINT
  5
17C
330
173
100
AcDbEntity
  8
DEFPOINTS
 62
     0
100
AcDbPoint
 10
39.99999999999999
 20
127.5999999999999
 30
0.0
  0
POINT
  5
17D
330
173
100
AcDbEntity
  8
DEFPOINTS
 62
     0
100
AcDbPoint
 10
39.99999999999998
 20
144.0344679999999
 30
0.0
  0
POINT
  5
17E
330
173
100
AcDbEntity
  8
DEFPOINTS
 62
     0
100
AcDbPoint
 10
39.99999999999999
 20
127.5999999999999
 30
0.0
  0
POINT
  5
17F
330
173
100
AcDbEntity
  8
DEFPOINTS
 62
     0
100
AcDbPoint
 10
49.42642399999998
 20
141.0623279999998
 30
0.0
  0
ENDBLK
  5
181
330
173
100
AcDbEntity
  8
0
100
AcDbBlockEnd
  0
BLOCK
  5
18F
330
182
100
AcDbEntity
  8
0
100
AcDbBlockBegin
  2
*D15
 70
     1
 10
0.0
 20
0.0
 30
0.0
  3
*D15
  1

  0
LINE
  5
183
330
182
100
AcDbEntity
  8
CSLAYER1
 62
     0
100
AcDbLine
 10
111.0859076335442
 20
65.40006618168821
 30
0.0
 11
110.9724112045528
 21
65.4304774407897
 31
0.0
  0
LINE
  5
184
330
182
100
AcDbEntity
  8
CSLAYER1
 62
     0
100
AcDbLine
 10
110.4539669999999
 20
60.60000000603467
 30
0.0
 11
110.3364668381435
 21
60.60000001737986
 31
0.0
  0
ARC
  5
185
330
182
100
AcDbEntity
  8
CSLAYER1
 62
     0
100
AcDbCircle
 10
129.0
 20
60.59999999999998
 30
0.0
 40
18.4835331618563
100
AcDbArc
 50
165.5579724751985
 51
171.9368433678423
  0
ARC
  5
186
330
182
100
AcDbEntity
  8
CSLAYER1
 62
     0
100
AcDbCircle
 10
129.0
 20
60.59999999999998
 30
0.0
 40
18.4835331618563
100
AcDbArc
 50
173.0624299887005
 51
179.4420286979001
  0
SOLID
  5
187
330
182
100
AcDbEntity
  8
CSLAYER1
 62
     0
100
AcDbTrace
 10
111.0715223403013
 20
65.21742198568936
 30
0.0
 11
111.1295528176351
 21
65.20217522536376
 31
0.0
 12
111.1462778599449
 22
65.38389003752758
 32
0.0
 13
111.1462778599449
 23
65.38389003752758
 33
0.0
  0
SOLID
  5
188
330
182
100
AcDbEntity
  8
CSLAYER1
 62
     0
100
AcDbTrace
 10
110.5473429383134
 20
60.77985179020043
 30
0.0
 11
110.4873436495904
 21
60.7801439421366
 31
0.0
 12
110.5164668381437
 22
60.60000000000002
 32
0.0
 13
110.5164668381437
 23
60.60000000000002
 33
0.0
  0
MTEXT
  5
189
330
182
100
AcDbEntity
  8
CSLAYER1
 62
     0
100
AcDbMText
 10
110.6745960019469
 20
63.01258501478904
 30
0.0
 40
0.18
 41
0.0
 71
     5
 72
     1
  1
\A1;15°
1001
ACAD
1000
MTEXTBEGIN
1070
    73
1070
     1
1070
    44
1040
1.0
1070
    74
1070
     0
1000
MTEXTEND
1000
MTEXTBEGIN
1070
    73
1070
     1
1070
    44
1040
1.0
1070
    74
1070
     0
1000
MTEXTEND
  0
POINT
  5
18A
330
182
100
AcDbEntity
  8
DEFPOINTS
 62
     0
100
AcDbPoint
 10
110.7972731953351
 20
63.80963160194228
 30
0.0
  0
POINT
  5
18B
330
182
100
AcDbEntity
  8
DEFPOINTS
 62
     0
100
AcDbPoint
 10
128.9999999999999
 20
60.59999999999998
 30
0.0
  0
POINT
  5
18C
330
182
100
AcDbEntity
  8
DEFPOINTS
 62
     0
100
AcDbPoint
 10
110.5164669999999
 20
60.59999999999998
 30
0.0
  0
POINT
  5
18D
330
182
100
AcDbEntity
  8
DEFPOINTS
 62
     0
100
AcDbPoint
 10
128.9999999999999
 20
60.59999999999998
 30
0.0
  0
POINT
  5
18E
330
182
100
AcDbEntity
  8
DEFPOINTS
 62
     0
100
AcDbPoint
 10
111.1462779999999
 20
65.38388999999999
 30
0.0
  0
ENDBLK
  5
190
330
182
100
AcDbEntity
  8
0
100
AcDbBlockEnd
  0
ENDSEC
  0
SECTION
  2
ENTITIES
  0
POINT
  5
CD
330
1E
100
AcDbEntity
  8
CSLAYER1
 62
     3
100
AcDbPoint
 10
124.5677764999999
 20
21.75
 30
0.0
  0
POINT
  5
CE
330
1E
100
AcDbEntity
  8
CSLAYER1
 62
     3
100
AcDbPoint
 10
135.4999999999999
 20
21.75
 30
0.0
  0
POINT
  5
CF
330
1E
100
AcDbEntity
  8
CSLAYER1
 62
     3
100
AcDbPoint
 10
135.4999999999999
 20
26.75
 30
0.0
  0
POINT
  5
D0
330
1E
100
AcDbEntity
  8
CSLAYER1
 62
     3
100
AcDbPoint
 10
125.2499999999999
 20
26.75
 30
0.0
  0
TEXT
  5
D1
330
1E
100
AcDbEntity
  8
CSLAYER1
 62
     3
100
AcDbText
 10
119.0499999999999
 20
25.5
 30
0.0
 40
2.5
  1
刃開キハ
 41
1.110447761194031
  7
FX_FONT
 72
     5
 11
131.45
 21
25.5
 31
0.0
100
AcDbText
  0
TEXT
  5
D2
330
1E
100
AcDbEntity
  8
CSLAYER1
 62
     3
100
AcDbText
 10
118.3177794999999
 20
20.5
 30
0.0
 40
2.5
  1
切刃部有効
 41
0.8720930232558149
  7
FX_FONT
 72
     5
 11
130.8177794999999
 21
20.5
 31
0.0
100
AcDbText
  0
POINT
  5
D3
330
1E
100
AcDbEntity
  8
CSLAYER1
 62
     3
100
AcDbPoint
 10
83.49999999999999
 20
69.55
 30
0.0
  0
POINT
  5
D4
330
1E
100
AcDbEntity
  8
CSLAYER1
 62
     3
100
AcDbPoint
 10
83.49999999999999
 20
58.04999999999999
 30
0.0
  0
TEXT
  5
DC
330
1E
100
AcDbEntity
  8
CSLAYER1
 62
     3
100
AcDbText
 10
134.2500154999999
 20
25.50000199999999
 30
0.0
 40
2.5
  1
4
 41
1.5
  7
FX_FONT
 72
     5
 11
136.7500154999999
 21
25.50000199999999
 31
0.0
100
AcDbText
  0
TEXT
  5
DD
330
1E
100
AcDbEntity
  8
CSLAYER1
 62
     3
100
AcDbText
 10
130.5000154999999
 20
20.50000199999999
 30
0.0
 40
2.5
  1
11.5
 41
1.09090909090909
  7
FX_FONT
 72
     5
 11
140.5000154999999
 21
20.50000199999999
 31
0.0
100
AcDbText
  0
TEXT
  5
DE
330
1E
100
AcDbEntity
  8
CSLAYER1
 62
     3
100
AcDbText
 10
122.7000155
 20
8.625002
 30
0.0
 40
1.75
  1
N3AP
 41
1.184415584415583
  7
FX_FONT
 72
     5
 11
130.3000155
 21
8.625002
 31
0.0
100
AcDbText
  0
INSERT
  5
DF
330
1E
100
AcDbEntity
  8
CSLAYER1
100
AcDbBlockReference
  2
FXDIM0001
 10
0.0
 20
0.0
 30
0.0
 41
0.5
 42
0.5
 43
0.5
  0
INSERT
  5
E0
330
1E
100
AcDbEntity
  8
CSLAYER1
100
AcDbBlockReference
  2
FXDIM0002
 10
0.0
 20
0.0
 30
0.0
 41
0.5
 42
0.5
 43
0.5
  0
LINE
  5
E1
330
1E
100
AcDbEntity
  8
CSLAYER1
  6
CONTINUOUS
 62
     3
100
AcDbLine
 10
118.3177764999999
 20
20.0
 30
0.0
 11
140.474961
 21
20.0
 31
0.0
  0
LINE
  5
E2
330
1E
100
AcDbEntity
  8
CSLAYER1
  6
CONTINUOUS
 62
     3
100
AcDbLine
 10
25.0
 20
55.79999999999995
 30
0.0
 11
25.0
 21
56.65925999999999
 31
0.0
  0
LINE
  5
E3
330
1E
100
AcDbEntity
  8
CSLAYER1
  6
CONTINUOUS
 62
     3
100
AcDbLine
 10
25.0
 20
56.65925999999999
 30
0.0
 11
20.0
 21
63.79999999999999
 31
0.0
  0
LINE
  5
E4
330
1E
100
AcDbEntity
  8
CSLAYER1
  6
CONTINUOUS
 62
     3
100
AcDbLine
 10
20.0
 20
63.79999999999999
 30
0.0
 11
25.0
 21
70.94073999999991
 31
0.0
  0
LINE
  5
E5
330
1E
100
AcDbEntity
  8
CSLAYER1
  6
CONTINUOUS
 62
     3
100
AcDbLine
 10
25.0
 20
70.94073999999991
 30
0.0
 11
25.0
 21
71.79999999999996
 31
0.0
  0
ARC
  5
E6
330
1E
100
AcDbEntity
  8
CSLAYER1
  6
CONTINUOUS
 62
     3
100
AcDbCircle
 10
69.330303
 20
80.79999999999996
 30
0.0
 40
25.0
100
AcDbArc
 50
222.843643
 51
270.0
  0
LINE
  5
E7
330
1E
100
AcDbEntity
  8
CSLAYER1
  6
CONTINUOUS
 62
     3
100
AcDbLine
 10
69.330303
 20
55.79999999999995
 30
0.0
 11
81.25
 21
55.79999999999995
 31
0.0
  0
LINE
  5
E8
330
1E
100
AcDbEntity
  8
CSLAYER1
  6
CONTINUOUS
 62
     3
100
AcDbLine
 10
81.25
 20
55.79999999999995
 30
0.0
 11
83.2266275
 21
57.77662749999995
 31
0.0
  0
LINE
  5
E9
330
1E
100
AcDbEntity
  8
CSLAYER1
  6
CONTINUOUS
 62
     3
100
AcDbLine
 10
83.0334955
 20
57.5834955
 30
0.0
 11
84.628341
 21
62.8
 31
0.0
  0
LINE
  5
EA
330
1E
100
AcDbEntity
  8
CSLAYER1
  6
CONTINUOUS
 62
     3
100
AcDbLine
 10
84.0
 20
62.8
 30
0.0
 11
115.0
 21
62.8
 31
0.0
  0
LINE
  5
EB
330
1E
100
AcDbEntity
  8
CSLAYER1
  6
CONTINUOUS
 62
     3
100
AcDbLine
 10
115.0
 20
64.8
 30
0.0
 11
84.0
 21
64.8
 31
0.0
  0
ARC
  5
EC
330
1E
100
AcDbEntity
  8
CSLAYER1
  6
CONTINUOUS
 62
     3
100
AcDbCircle
 10
84.0
 20
64.29999999999999
 30
0.0
 40
0.5
100
AcDbArc
 50
90.0
 51
180.0
  0
LINE
  5
ED
330
1E
100
AcDbEntity
  8
CSLAYER1
  6
CONTINUOUS
 62
     3
100
AcDbLine
 10
83.49999999999999
 20
64.29999999999999
 30
0.0
 11
83.49999999999999
 21
63.3
 31
0.0
  0
ARC
  5
EE
330
1E
100
AcDbEntity
  8
CSLAYER1
  6
CONTINUOUS
 62
     3
100
AcDbCircle
 10
84.0
 20
63.3
 30
0.0
 40
0.5
100
AcDbArc
 50
180.0
 51
270.0
  0
CIRCLE
  5
EF
330
1E
100
AcDbEntity
  8
CSLAYER1
  6
CONTINUOUS
 62
     3
100
AcDbCircle
 10
75.0
 20
63.79999999999999
 30
0.0
 40
5.5
  0
CIRCLE
  5
F0
330
1E
100
AcDbEntity
  8
CSLAYER1
  6
CONTINUOUS
 62
     3
100
AcDbCircle
 10
75.0
 20
63.79999999999999
 30
0.0
 40
2.049999999999998
  0
ARC
  5
F1
330
1E
100
AcDbEntity
  8
CSLAYER1
  6
CONTINUOUS
 62
     3
100
AcDbCircle
 10
75.0
 20
63.79999999999999
 30
0.0
 40
8.5
100
AcDbArc
 50
289.7499229999999
 51
3.366461
  0
LINE
  5
F2
330
1E
100
AcDbEntity
  8
CSLAYER1
  6
CONTINUOUS
 62
     3
100
AcDbLine
 10
83.8861694999999
 20
69.53161099999999
 30
0.0
 11
111.2443735
 21
68.22883950000001
 31
0.0
  0
LINE
  5
F3
330
1E
100
AcDbEntity
  8
CSLAYER1
  6
CONTINUOUS
 62
     3
100
AcDbLine
 10
111.0
 20
64.8
 30
0.0
 11
111.0
 21
62.8
 31
0.0
  0
LINE
  5
F4
330
1E
100
AcDbEntity
  8
CSLAYER1
  6
CONTINUOUS
 62
     3
100
AcDbLine
 10
111.2443735
 20
59.37116049999995
 30
0.0
 11
83.8861694999999
 21
58.068389
 31
0.0
  0
ARC
  5
F5
330
1E
100
AcDbEntity
  8
CSLAYER1
  6
CONTINUOUS
 62
     3
100
AcDbCircle
 10
83.9337345
 20
57.06952099999999
 30
0.0
 40
1.0
100
AcDbArc
 50
92.72631099999999
 51
135.0
  0
ARC
  5
F6
330
1E
100
AcDbEntity
  8
CSLAYER1
  6
CONTINUOUS
 62
     3
100
AcDbCircle
 10
83.9337345
 20
70.530479
 30
0.0
 40
1.0
100
AcDbArc
 50
225.0
 51
267.2736889999999
  0
LINE
  5
F7
330
1E
100
AcDbEntity
  8
CSLAYER1
  6
CONTINUOUS
 62
     3
100
AcDbLine
 10
83.2266275
 20
69.82337249999989
 30
0.0
 11
81.25
 21
71.79999999999996
 31
0.0
  0
LINE
  5
F8
330
1E
100
AcDbEntity
  8
CSLAYER1
  6
CONTINUOUS
 62
     3
100
AcDbLine
 10
81.25
 20
71.79999999999996
 30
0.0
 11
69.330303
 21
71.79999999999996
 31
0.0
  0
ARC
  5
F9
330
1E
100
AcDbEntity
  8
CSLAYER1
  6
CONTINUOUS
 62
     3
100
AcDbCircle
 10
69.330303
 20
46.79999999999999
 30
0.0
 40
25.0
100
AcDbArc
 50
90.0
 51
137.156357
  0
LINE
  5
FA
330
1E
100
AcDbEntity
  8
CSLAYER1
  6
CONTINUOUS
 62
     3
100
AcDbLine
 10
62.10814699999995
 20
63.6
 30
0.0
 11
64.65543599999995
 21
63.6
 31
0.0
  0
ARC
  5
FB
330
1E
100
AcDbEntity
  8
CSLAYER1
  6
CONTINUOUS
 62
     3
100
AcDbCircle
 10
64.65543599999995
 20
65.59999999999995
 30
0.0
 40
2.0
100
AcDbArc
 50
270.0
 51
350.12911
  0
ARC
  5
FC
330
1E
100
AcDbEntity
  8
CSLAYER1
  6
CONTINUOUS
 62
     3
100
AcDbCircle
 10
64.65543599999995
 20
62.0
 30
0.0
 40
2.0
100
AcDbArc
 50
64.158067
 51
90.0
  0
LINE
  5
FD
330
1E
100
AcDbEntity
  8
CSLAYER1
  6
CONTINUOUS
 62
     3
100
AcDbLine
 10
64.65543599999995
 20
64.0
 30
0.0
 11
62.10814699999995
 21
64.0
 31
0.0
  0
LINE
  5
FE
330
1E
100
AcDbEntity
  8
CSLAYER1
  6
CONTINUOUS
 62
     3
100
AcDbLine
 10
64.5
 20
63.54999999999995
 30
0.0
 11
64.5
 21
56.27107449999996
 31
0.0
  0
LINE
  5
FF
330
1E
100
AcDbEntity
  8
CSLAYER1
  6
CONTINUOUS
 62
     3
100
AcDbLine
 10
65.1110005
 20
63.94742449999995
 30
0.0
 11
67.511774
 21
71.79999999999996
 31
0.0
  0
LINE
  5
100
330
1E
100
AcDbEntity
  8
CSLAYER1
  6
CONTINUOUS
 62
     3
100
AcDbLine
 10
64.5
 20
71.32892549999991
 30
0.0
 11
64.5
 21
64.04999999999995
 31
0.0
  0
ARC
  5
101
330
1E
100
AcDbEntity
  8
CSLAYER1
  6
CONTINUOUS
 62
     3
100
AcDbCircle
 10
75.0
 20
63.79999999999999
 30
0.0
 40
8.5
100
AcDbArc
 50
109.7499229999999
 51
170.1291099999999
  0
LINE
  5
102
330
1E
100
AcDbEntity
  8
CSLAYER1
  6
CONTINUOUS
 62
     3
100
AcDbLine
 10
64.5
 20
37.29999999999999
 30
0.0
 11
109.7583425
 21
37.29999999999999
 31
0.0
  0
ARC
  5
103
330
1E
100
AcDbEntity
  8
CSLAYER1
  6
CONTINUOUS
 62
     3
100
AcDbCircle
 10
109.7583425
 20
31.3
 30
0.0
 40
6.0
100
AcDbArc
 50
33.748989
 51
90.0
  0
ARC
  5
104
330
1E
100
AcDbEntity
  8
CSLAYER1
  6
CONTINUOUS
 62
     3
100
AcDbCircle
 10
113.5
 20
33.79999999999999
 30
0.0
 40
1.5
100
AcDbArc
 50
326.251011
 51
33.748989
  0
LINE
  5
105
330
1E
100
AcDbEntity
  8
CSLAYER1
  6
CONTINUOUS
 62
     3
100
AcDbLine
 10
109.7583425
 20
30.3
 30
0.0
 11
64.5
 21
30.3
 31
0.0
  0
LINE
  5
106
330
1E
100
AcDbEntity
  8
CSLAYER1
  6
CONTINUOUS
 62
     3
100
AcDbLine
 10
64.5
 20
30.3
 30
0.0
 11
51.0
 21
33.917314
 31
0.0
  0
LINE
  5
107
330
1E
100
AcDbEntity
  8
CSLAYER1
  6
CONTINUOUS
 62
     3
100
AcDbLine
 10
51.0
 20
33.917314
 30
0.0
 11
51.0
 21
35.117314
 31
0.0
  0
LINE
  5
108
330
1E
100
AcDbEntity
  8
CSLAYER1
  6
CONTINUOUS
 62
     3
100
AcDbLine
 10
51.0
 20
35.117314
 30
0.0
 11
63.5
 21
35.117314
 31
0.0
  0
ARC
  5
109
330
1E
100
AcDbEntity
  8
CSLAYER1
  6
CONTINUOUS
 62
     3
100
AcDbCircle
 10
63.5
 20
36.117314
 30
0.0
 40
1.0
100
AcDbArc
 50
270.0
 51
0.0
  0
LINE
  5
10A
330
1E
100
AcDbEntity
  8
CSLAYER1
  6
CONTINUOUS
 62
     3
100
AcDbLine
 10
64.5
 20
36.117314
 30
0.0
 11
64.5
 21
37.29999999999999
 31
0.0
  0
LINE
  5
10B
330
1E
100
AcDbEntity
  8
CSLAYER1
  6
CONTINUOUS
 62
     3
100
AcDbLine
 10
67.4665045
 20
33.79999999999999
 30
0.0
 11
82.53349549999995
 21
33.79999999999999
 31
0.0
  0
ARC
  5
10C
330
1E
100
AcDbEntity
  8
CSLAYER1
  6
CONTINUOUS
 62
     3
100
AcDbCircle
 10
82.53349549999995
 20
34.29999999999999
 30
0.0
 40
0.5
100
AcDbArc
 50
270.0
 51
0.0
  0
LINE
  5
10D
330
1E
100
AcDbEntity
  8
CSLAYER1
  6
CONTINUOUS
 62
     3
100
AcDbLine
 10
83.0334955
 20
34.29999999999999
 30
0.0
 11
83.0334955
 21
37.29999999999999
 31
0.0
  0
LINE
  5
10E
330
1E
100
AcDbEntity
  8
CSLAYER1
  6
CONTINUOUS
 62
     3
100
AcDbLine
 10
77.8722815
 20
37.29999999999999
 30
0.0
 11
77.8722815
 21
34.29999999999999
 31
0.0
  0
LINE
  5
10F
330
1E
100
AcDbEntity
  8
CSLAYER1
  6
CONTINUOUS
 62
     3
100
AcDbLine
 10
77.8722815
 20
34.29999999999999
 30
0.0
 11
77.37228149999999
 21
33.79999999999999
 31
0.0
  0
LINE
  5
110
330
1E
100
AcDbEntity
  8
CSLAYER1
  6
CONTINUOUS
 62
     3
100
AcDbLine
 10
72.6277185
 20
33.79999999999999
 30
0.0
 11
72.1277185
 21
33.3
 31
0.0
  0
LINE
  5
111
330
1E
100
AcDbEntity
  8
CSLAYER1
  6
CONTINUOUS
 62
     3
100
AcDbLine
 10
72.1277185
 20
33.3
 30
0.0
 11
72.1277185
 21
30.3
 31
0.0
  0
LINE
  5
112
330
1E
100
AcDbEntity
  8
CSLAYER1
  6
CONTINUOUS
 62
     3
100
AcDbLine
 10
66.96650449999999
 20
30.3
 30
0.0
 11
66.96650449999999
 21
33.3
 31
0.0
  0
ARC
  5
113
330
1E
100
AcDbEntity
  8
CSLAYER1
  6
CONTINUOUS
 62
     3
100
AcDbCircle
 10
67.4665045
 20
33.3
 30
0.0
 40
0.5
100
AcDbArc
 50
90.0
 51
180.0
  0
ARC
  5
114
330
1E
100
AcDbEntity
  8
CSLAYER1
  6
CONTINUOUS
 62
     3
100
AcDbCircle
 10
109.7583425
 20
36.29999999999999
 30
0.0
 40
6.0
100
AcDbArc
 50
270.0
 51
326.251011
  0
LINE
  5
115
330
1E
100
AcDbEntity
  8
CSLAYER1
  6
CONTINUOUS
 62
     3
100
AcDbLine
 10
118.3177764999999
 20
25.0
 30
0.0
 11
139.5
 21
25.0
 31
0.0
  0
ARC
  5
116
330
1E
100
AcDbEntity
  8
CSLAYER1
  6
CONTINUOUS
 62
     3
100
AcDbCircle
 10
111.0541129999999
 20
64.233367
 30
0.0
 40
4.0
100
AcDbArc
 50
9.435140999999999
 51
87.273689
  0
LINE
  5
117
330
1E
100
AcDbEntity
  8
CSLAYER1
  6
CONTINUOUS
 62
     3
100
AcDbLine
 10
107.0
 20
64.8
 30
0.0
 11
107.0
 21
62.8
 31
0.0
  0
ARC
  5
118
330
1E
100
AcDbEntity
  8
CSLAYER1
  6
CONTINUOUS
 62
     3
100
AcDbCircle
 10
111.0541129999999
 20
63.36663299999995
 30
0.0
 40
4.0
100
AcDbArc
 50
272.7263109999999
 51
350.564859
  0
LINE
  5
119
330
1E
100
AcDbEntity
  8
CSLAYER1
  6
CENTER
 62
     4
100
AcDbLine
 10
27.6106175
 20
63.79999999999999
 30
0.0
 11
17.6382785
 21
63.79999999999999
 31
0.0
  0
LINE
  5
11B
330
1E
100
AcDbEntity
  8
CSLAYER1
  6
CENTER
 62
     4
100
AcDbLine
 10
47.9666665
 20
63.79999999999999
 30
0.0
 11
51.0
 21
63.79999999999999
 31
0.0
  0
LINE
  5
11C
330
1E
100
AcDbEntity
  8
CSLAYER1
  6
CENTER
 62
     4
100
AcDbLine
 10
75.0
 20
52.76285699999995
 30
0.0
 11
75.0
 21
74.45647199999995
 31
0.0
  0
LINE
  5
11D
330
1E
100
AcDbEntity
  8
CSLAYER1
  6
CONTINUOUS
 62
     3
100
AcDbLine
 10
51.0
 20
63.79999999999999
 30
0.0
 11
62.10814699999995
 21
63.79999999999999
 31
0.0
  0
LINE
  5
11E
330
1E
100
AcDbEntity
  8
CSLAYER1
  6
CENTER
 62
     4
100
AcDbLine
 10
109.0
 20
66.92
 30
0.0
 11
109.0
 21
60.79999999999995
 31
0.0
  0
LINE
  5
11F
330
1E
100
AcDbEntity
  8
CSLAYER1
  6
CENTER
 62
     4
100
AcDbLine
 10
88.0
 20
59.51028549999989
 30
0.0
 11
88.0
 21
68.04999999999996
 31
0.0
  0
LINE
  5
120
330
1E
100
AcDbEntity
  8
CSLAYER1
  6
CENTER
 62
     4
100
AcDbLine
 10
75.0
 20
40.28714299999999
 30
0.0
 11
75.0
 21
27.8114285
 31
0.0
  0
LINE
  5
121
330
1E
100
AcDbEntity
  8
CSLAYER1
  6
CENTER
 62
     4
100
AcDbLine
 10
67.4665045
 20
33.79999999999999
 30
0.0
 11
64.28928549999989
 21
33.79999999999999
 31
0.0
  0
LINE
  5
122
330
1E
100
AcDbEntity
  8
CSLAYER1
  6
CENTER
 62
     4
100
AcDbLine
 10
82.53349549999995
 20
33.79999999999999
 30
0.0
 11
86.07785699999997
 21
33.79999999999999
 31
0.0
  0
LINE
  5
123
330
1E
100
AcDbEntity
  8
CSLAYER1
  6
CENTER
 62
     4
100
AcDbLine
 10
107.1635714999999
 20
33.79999999999999
 30
0.0
 11
118.7607145
 21
33.79999999999999
 31
0.0
  0
LINE
  5
124
330
1E
100
AcDbEntity
  8
CSLAYER1
  6
CONTINUOUS
 62
     3
100
AcDbLine
 10
62.10814699999995
 20
63.60021500000001
 30
0.0
 11
62.10814699999995
 21
64.00021499999995
 31
0.0
  0
LINE
  5
125
330
1E
100
AcDbEntity
  8
CSLAYER1
  6
DASHED
 62
     4
100
AcDbLine
 10
64.35051350000001
 20
35.59136099999999
 30
0.0
 11
64.0054755
 21
31.6475575
 31
0.0
  0
ARC
  5
126
330
1E
100
AcDbEntity
  8
CSLAYER1
  6
DASHED
 62
     4
100
AcDbCircle
 10
63.0092805
 20
31.734713
 30
0.0
 40
1.0
100
AcDbArc
 50
255.0
 51
355.0
  0
LINE
  5
127
330
1E
100
AcDbEntity
  8
CSLAYER1
  6
CONTINUOUS
 62
     3
100
AcDbLine
 10
53.379261
 20
66.05004599999995
 30
0.0
 11
62.047872
 21
69.2053525
 31
0.0
  0
LINE
  5
128
330
1E
100
AcDbEntity
  8
CSLAYER1
  6
CONTINUOUS
 62
     3
100
AcDbLine
 10
63.35939649999995
 20
68.51081050000001
 30
0.0
 11
64.5
 21
64.0
 31
0.0
  0
LINE
  5
129
330
1E
100
AcDbEntity
  8
CSLAYER1
  6
CONTINUOUS
 62
     3
100
AcDbLine
 10
63.19336899999996
 20
68.86102650000001
 30
0.0
 11
63.90160699999995
 21
64.0
 31
0.0
  0
ARC
  5
12A
330
1E
100
AcDbEntity
  8
CSLAYER1
  6
CONTINUOUS
 62
     3
100
AcDbCircle
 10
62.38991
 20
68.26566650000001
 30
0.0
 40
1.0
100
AcDbArc
 50
14.190363
 51
110.001109
  0
ARC
  5
12B
330
1E
100
AcDbEntity
  8
CSLAYER1
  6
CONTINUOUS
 62
     3
100
AcDbCircle
 10
62.38991
 20
59.3343335
 30
0.0
 40
1.0
100
AcDbArc
 50
249.998891
 51
345.809637
  0
LINE
  5
12C
330
1E
100
AcDbEntity
  8
CSLAYER1
  6
CONTINUOUS
 62
     3
100
AcDbLine
 10
63.19336899999996
 20
58.7389735
 30
0.0
 11
63.90160699999995
 21
63.6
 31
0.0
  0
LINE
  5
12D
330
1E
100
AcDbEntity
  8
CSLAYER1
  6
CONTINUOUS
 62
     3
100
AcDbLine
 10
63.35939649999995
 20
59.0891895
 30
0.0
 11
64.5
 21
63.6
 31
0.0
  0
LINE
  5
12E
330
1E
100
AcDbEntity
  8
CSLAYER1
  6
CONTINUOUS
 62
     3
100
AcDbLine
 10
53.379261
 20
61.549954
 30
0.0
 11
62.047872
 21
58.39464749999995
 31
0.0
  0
LINE
  5
12F
330
1E
100
AcDbEntity
  8
CSLAYER1
  6
CONTINUOUS
 62
     3
100
AcDbLine
 10
25.0
 20
71.79999999999996
 30
0.0
 11
20.71682049999998
 21
71.79999999999996
 31
0.0
  0
LINE
  5
130
330
1E
100
AcDbEntity
  8
CSLAYER1
  6
CONTINUOUS
 62
     3
100
AcDbLine
 10
25.0
 20
55.79999999999995
 30
0.0
 11
20.71682049999998
 21
55.79999999999995
 31
0.0
  0
LINE
  5
131
330
1E
100
AcDbEntity
  8
CSLAYER1
  6
CENTER
 62
     4
100
AcDbLine
 10
62.10814699999995
 20
63.79999999999999
 30
0.0
 11
117.4
 21
63.79999999999999
 31
0.0
  0
ARC
  5
134
330
1E
100
AcDbEntity
  8
CSLAYER1
  6
CONTINUOUS
 62
     3
100
AcDbCircle
 10
65.0
 20
63.79999999999999
 30
0.0
 40
45.0
100
AcDbArc
 50
169.7596519999999
 51
190.240348
  0
CIRCLE
  5
136
330
1E
100
AcDbEntity
  8
CSLAYER1
  6
CONTINUOUS
 62
     3
100
AcDbCircle
 10
42.1921575
 20
14.945088
 30
0.0
 40
5.5
  0
CIRCLE
  5
137
330
1E
100
AcDbEntity
  8
CSLAYER1
  6
CONTINUOUS
 62
     3
100
AcDbCircle
 10
42.1921575
 20
14.945088
 30
0.0
 40
2.049999999999998
  0
LINE
  5
138
330
1E
100
AcDbEntity
  8
CSLAYER1
  6
CONTINUOUS
 62
     3
100
AcDbLine
 10
42.1921575
 20
22.9730115
 30
0.0
 11
37.20884749999999
 21
23.38973649999999
 31
0.0
  0
ARC
  5
139
330
1E
100
AcDbEntity
  8
CSLAYER1
  6
CONTINUOUS
 62
     3
100
AcDbCircle
 10
35.1255145
 20
-1.5233065
 30
0.0
 40
25.0
100
AcDbArc
 50
85.21980799999999
 51
132.3761649999999
  0
ARC
  5
13A
330
1E
100
AcDbEntity
  8
CSLAYER1
  6
CONTINUOUS
 62
     3
100
AcDbCircle
 10
31.73357499999999
 20
14.013396
 30
0.0
 40
2.0
100
AcDbArc
 50
27.76499199999999
 51
85.21980799999999
  0
LINE
  5
13B
330
1E
100
AcDbEntity
  8
CSLAYER1
  6
CONTINUOUS
 62
     3
100
AcDbLine
 10
31.90024149999999
 20
16.0064395
 30
0.0
 11
29.3618125
 21
16.2187135
 31
0.0
  0
LINE
  5
13C
330
1E
100
AcDbEntity
  8
CSLAYER1
  6
CONTINUOUS
 62
     3
100
AcDbLine
 10
32.34984
 20
15.91608299999999
 30
0.0
 11
35.396644
 21
23.541281
 31
0.0
  0
LINE
  5
13D
330
1E
100
AcDbEntity
  8
CSLAYER1
  6
CONTINUOUS
 62
     3
100
AcDbLine
 10
32.3560895
 20
23.322826
 30
0.0
 11
31.7495125
 21
16.06921849999999
 31
0.0
  0
ARC
  5
13E
330
1E
100
AcDbEntity
  8
CSLAYER1
  6
CONTINUOUS
 62
     3
100
AcDbCircle
 10
42.1921575
 20
14.945088
 30
0.0
 40
8.5
100
AcDbArc
 50
114.5301149999999
 51
174.909302
  0
LINE
  5
13F
330
1E
100
AcDbEntity
  8
CSLAYER1
  6
CENTER
 62
     4
100
AcDbLine
 10
42.1921575
 20
3.9079455
 30
0.0
 11
42.1921575
 21
25.60156
 31
0.0
  0
LINE
  5
140
330
1E
100
AcDbEntity
  8
CSLAYER1
  6
CONTINUOUS
 62
     3
100
AcDbLine
 10
18.27563599999999
 20
16.945088
 30
0.0
 11
29.345146
 21
16.01940899999999
 31
0.0
  0
LINE
  5
141
330
1E
100
AcDbEntity
  8
CSLAYER1
  6
CONTINUOUS
 62
     3
100
AcDbLine
 10
29.345146
 20
16.01940899999999
 30
0.0
 11
29.3618305
 21
16.21892799999999
 31
0.0
  0
LINE
  5
142
330
1E
100
AcDbEntity
  8
CSLAYER1
  6
CONTINUOUS
 62
     3
100
AcDbLine
 10
20.83412549999999
 20
18.98903599999999
 30
0.0
 11
29.735526
 21
21.41098299999999
 31
0.0
  0
LINE
  5
143
330
1E
100
AcDbEntity
  8
CSLAYER1
  6
CONTINUOUS
 62
     3
100
AcDbLine
 10
30.98461099999999
 20
20.6095635
 30
0.0
 11
31.745346
 21
16.0193925
 31
0.0
  0
LINE
  5
144
330
1E
100
AcDbEntity
  8
CSLAYER1
  6
CONTINUOUS
 62
     3
100
AcDbLine
 10
30.8483455
 20
20.972397
 30
0.0
 11
31.14903449999999
 21
16.0692585
 31
0.0
  0
ARC
  5
145
330
1E
100
AcDbEntity
  8
CSLAYER1
  6
CONTINUOUS
 62
     3
100
AcDbCircle
 10
29.99806749999999
 20
20.4460625
 30
0.0
 40
1.0
100
AcDbArc
 50
9.410171
 51
105.2209169999997
  0
LINE
  5
146
330
1E
100
AcDbEntity
  8
CSLAYER1
  6
CENTER
 62
     4
100
AcDbLine
 10
16.1848415
 20
14.945088
 30
0.0
 11
51.3212105
 21
14.945088
 31
0.0
  0
LINE
  5
147
330
1E
100
AcDbEntity
  8
CSLAYER1
  6
CONTINUOUS
 62
     3
100
AcDbLine
 10
47.38680099999999
 20
7.351563
 30
0.0
 11
37.20884749999999
 21
6.500439499999999
 31
0.0
  0
ARC
  5
148
330
1E
100
AcDbEntity
  8
CSLAYER1
  6
CONTINUOUS
 62
     3
100
AcDbCircle
 10
35.1255145
 20
31.413483
 30
0.0
 40
25.0
100
AcDbArc
 50
227.623835
 51
274.780192
  0
ARC
  5
149
330
1E
100
AcDbEntity
  8
CSLAYER1
  6
CONTINUOUS
 62
     3
100
AcDbCircle
 10
31.73357499999999
 20
15.8767805
 30
0.0
 40
2.0
100
AcDbArc
 50
274.780192
 51
354.909302
  0
LINE
  5
14A
330
1E
100
AcDbEntity
  8
CSLAYER1
  6
CONTINUOUS
 62
     3
100
AcDbLine
 10
31.90024149999999
 20
13.883737
 30
0.0
 11
29.3618125
 21
13.6714625
 31
0.0
  0
LINE
  5
14B
330
1E
100
AcDbEntity
  8
CSLAYER1
  6
CONTINUOUS
 62
     3
100
AcDbLine
 10
32.3560895
 20
6.5673505
 30
0.0
 11
31.7495125
 21
13.8209575
 31
0.0
  0
LINE
  5
14C
330
1E
100
AcDbEntity
  8
CSLAYER1
  6
CONTINUOUS
 62
     3
100
AcDbLine
 10
18.27563599999999
 20
12.945088
 30
0.0
 11
29.345146
 21
13.870767
 31
0.0
  0
LINE
  5
14D
330
1E
100
AcDbEntity
  8
CSLAYER1
  6
CONTINUOUS
 62
     3
100
AcDbLine
 10
29.345146
 20
13.870767
 30
0.0
 11
29.3618305
 21
13.67124849999999
 31
0.0
  0
LINE
  5
14E
330
1E
100
AcDbEntity
  8
CSLAYER1
  6
CONTINUOUS
 62
     3
100
AcDbLine
 10
20.83412549999999
 20
10.90114
 30
0.0
 11
29.735526
 21
8.479192999999995
 31
0.0
  0
LINE
  5
14F
330
1E
100
AcDbEntity
  8
CSLAYER1
  6
CONTINUOUS
 62
     3
100
AcDbLine
 10
30.98461099999999
 20
9.2806125
 30
0.0
 11
31.745346
 21
13.870784
 31
0.0
  0
LINE
  5
150
330
1E
100
AcDbEntity
  8
CSLAYER1
  6
CONTINUOUS
 62
     3
100
AcDbLine
 10
30.8483455
 20
8.917779499999999
 30
0.0
 11
31.14903449999999
 21
13.82091749999999
 31
0.0
  0
ARC
  5
151
330
1E
100
AcDbEntity
  8
CSLAYER1
  6
CONTINUOUS
 62
     3
100
AcDbCircle
 10
29.99806749999999
 20
9.444114
 30
0.0
 40
1.0
100
AcDbArc
 50
254.779083
 51
350.589829
  0
LINE
  5
152
330
1E
100
AcDbEntity
  8
CSLAYER1
  6
CONTINUOUS
 62
     3
100
AcDbLine
 10
45.6604315
 20
23.26304299999999
 30
0.0
 11
38.6632
 21
22.67790499999999
 31
0.0
  0
LINE
  5
154
330
1E
100
AcDbEntity
  8
CSLAYER1
  6
CONTINUOUS
 62
     3
100
AcDbLine
 10
5.6749735
 20
16.945088
 30
0.0
 11
10.6749735
 21
24.085828
 31
0.0
  0
LINE
  5
155
330
1E
100
AcDbEntity
  8
CSLAYER1
  6
CONTINUOUS
 62
     3
100
AcDbLine
 10
10.6749735
 20
24.085828
 30
0.0
 11
10.6749735
 21
24.945088
 31
0.0
  0
LINE
  5
156
330
1E
100
AcDbEntity
  8
CSLAYER1
  6
CONTINUOUS
 62
     3
100
AcDbLine
 10
10.6749735
 20
24.945088
 30
0.0
 11
6.391793999999999
 21
24.945088
 31
0.0
  0
ARC
  5
157
330
1E
100
AcDbEntity
  8
CSLAYER1
  6
CONTINUOUS
 62
     3
100
AcDbCircle
 10
50.67497349999995
 20
16.945088
 30
0.0
 40
45.0
100
AcDbArc
 50
169.7596519999999
 51
180.0
  0
LINE
  5
158
330
1E
100
AcDbEntity
  8
CSLAYER1
  6
CENTER
 62
     4
100
AcDbLine
 10
4.273480999999998
 20
14.945088
 30
0.0
 11
11.5131365
 21
14.945088
 31
0.0
  0
LINE
  5
159
330
1E
100
AcDbEntity
  8
CSLAYER1
  6
CONTINUOUS
 62
     3
100
AcDbLine
 10
5.6749735
 20
12.945088
 30
0.0
 11
10.6749735
 21
5.804348
 31
0.0
  0
LINE
  5
15A
330
1E
100
AcDbEntity
  8
CSLAYER1
  6
CONTINUOUS
 62
     3
100
AcDbLine
 10
10.6749735
 20
5.804348
 30
0.0
 11
10.6749735
 21
4.945088
 31
0.0
  0
LINE
  5
15B
330
1E
100
AcDbEntity
  8
CSLAYER1
  6
CONTINUOUS
 62
     3
100
AcDbLine
 10
10.6749735
 20
4.945088
 30
0.0
 11
6.391793999999999
 21
4.945088
 31
0.0
  0
ARC
  5
15C
330
1E
100
AcDbEntity
  8
CSLAYER1
  6
CONTINUOUS
 62
     3
100
AcDbCircle
 10
50.67497349999995
 20
12.945088
 30
0.0
 40
45.0
100
AcDbArc
 50
180.0
 51
190.240348
  0
LINE
  5
15E
330
1E
100
AcDbEntity
  8
CSLAYER1
  6
DOT
 62
     3
100
AcDbLine
 10
2.5
 20
0.5
 30
0.0
 11
142.0
 21
0.5
 31
0.0
  0
LINE
  5
15F
330
1E
100
AcDbEntity
  8
CSLAYER1
  6
DOT
 62
     3
100
AcDbLine
 10
142.0
 20
0.5
 30
0.0
 11
142.0
 21
97.5
 31
0.0
  0
LINE
  5
160
330
1E
100
AcDbEntity
  8
CSLAYER1
  6
DOT
 62
     3
100
AcDbLine
 10
142.0
 20
97.5
 30
0.0
 11
2.5
 21
97.5
 31
0.0
  0
LINE
  5
161
330
1E
100
AcDbEntity
  8
CSLAYER1
  6
DOT
 62
     3
100
AcDbLine
 10
2.5
 20
97.5
 30
0.0
 11
2.5
 21
0.5
 31
0.0
  0
LINE
  5
162
330
1E
100
AcDbEntity
  8
CSLAYER1
  6
DOT
 62
     3
100
AcDbLine
 10
2.5
 20
49.0
 30
0.0
 11
0.5
 21
49.0
 31
0.0
  0
LINE
  5
163
330
1E
100
AcDbEntity
  8
CSLAYER1
  6
DOT
 62
     3
100
AcDbLine
 10
142.0
 20
49.0
 30
0.0
 11
144.0
 21
49.0
 31
0.0
  0
LINE
  5
164
330
1E
100
AcDbEntity
  8
CSLAYER1
  6
DOT
 62
     3
100
AcDbLine
 10
72.25
 20
97.5
 30
0.0
 11
72.25
 21
99.50000000000001
 31
0.0
  0
LINE
  5
165
330
1E
100
AcDbEntity
  8
CSLAYER1
  6
DOT
 62
     3
100
AcDbLine
 10
17.5
 20
97.5
 30
0.0
 11
17.5
 21
93.49999999999999
 31
0.0
  0
LINE
  5
166
330
1E
100
AcDbEntity
  8
CSLAYER1
  6
DOT
 62
     3
100
AcDbLine
 10
17.5
 20
93.49999999999999
 30
0.0
 11
2.5
 21
93.49999999999999
 31
0.0
  0
TEXT
  5
1AA
330
1E
100
AcDbEntity
  8
CSLAYER1
 62
     4
100
AcDbText
 10
61.5
 20
82.84888449999995
 30
0.0
 40
1.5
  1
24
 41
1.2
 51
15.0
  7
FX_FONT
 72
     5
 11
64.5
 21
82.84888449999995
 31
0.0
100
AcDbText
  0
LINE
  5
1AB
330
1E
100
AcDbEntity
  8
CSLAYER1
 62
     4
100
AcDbLine
 10
51.0
 20
82.3488865
 30
0.0
 11
75.0
 21
82.3488865
 31
0.0
  0
LINE
  5
1AC
330
1E
100
AcDbEntity
  8
CSLAYER1
 62
     4
100
AcDbLine
 10
51.0
 20
82.3488865
 30
0.0
 11
52.4488885
 21
82.737115
 31
0.0
  0
LINE
  5
1AD
330
1E
100
AcDbEntity
  8
CSLAYER1
 62
     4
100
AcDbLine
 10
51.0
 20
82.3488865
 30
0.0
 11
52.4488885
 21
81.96065799999995
 31
0.0
  0
LINE
  5
1AE
330
1E
100
AcDbEntity
  8
CSLAYER1
 62
     4
100
AcDbLine
 10
75.0
 20
82.3488865
 30
0.0
 11
73.5511115
 21
82.737115
 31
0.0
  0
LINE
  5
1AF
330
1E
100
AcDbEntity
  8
CSLAYER1
 62
     4
100
AcDbLine
 10
75.0
 20
82.3488865
 30
0.0
 11
73.5511115
 21
81.96065799999995
 31
0.0
  0
LINE
  5
1B0
330
1E
100
AcDbEntity
  8
CSLAYER1
 62
     4
100
AcDbLine
 10
51.0
 20
64.8
 30
0.0
 11
51.0
 21
83.34888650000001
 31
0.0
  0
LINE
  5
1B1
330
1E
100
AcDbEntity
  8
CSLAYER1
 62
     4
100
AcDbLine
 10
75.0
 20
75.45647199999995
 30
0.0
 11
75.0
 21
83.34888650000001
 31
0.0
  0
TEXT
  5
1B2
330
1E
100
AcDbEntity
  8
CSLAYER1
 62
     4
100
AcDbText
 10
45.07271949999999
 20
58.550003
 30
0.0
 40
1.5
  1
14.5~16
 50
90.0
 41
1.05
 51
15.0
  7
FX_FONT
 72
     5
 11
45.07271949999999
 21
69.05000300000001
 31
0.0
100
AcDbText
  0
LINE
  5
1B3
330
1E
100
AcDbEntity
  8
CSLAYER1
 62
     4
100
AcDbLine
 10
69.03030300000001
 20
55.79999999999995
 30
0.0
 11
45.0727275
 21
55.79999999999995
 31
0.0
  0
LINE
  5
1B4
330
1E
100
AcDbEntity
  8
CSLAYER1
 62
     4
100
AcDbLine
 10
68.82727249999989
 20
71.79999999999996
 30
0.0
 11
45.0727275
 21
71.79999999999996
 31
0.0
  0
LINE
  5
1B5
330
1E
100
AcDbEntity
  8
CSLAYER1
 62
     4
100
AcDbLine
 10
45.5727275
 20
55.79999999999995
 30
0.0
 11
45.5727275
 21
71.79999999999996
 31
0.0
  0
LINE
  5
1B6
330
1E
100
AcDbEntity
  8
CSLAYER1
 62
     4
100
AcDbLine
 10
45.5727275
 20
55.79999999999995
 30
0.0
 11
45.18449849999999
 21
57.2488885
 31
0.0
  0
LINE
  5
1B7
330
1E
100
AcDbEntity
  8
CSLAYER1
 62
     4
100
AcDbLine
 10
45.5727275
 20
55.79999999999995
 30
0.0
 11
45.960956
 21
57.2488885
 31
0.0
  0
LINE
  5
1B8
330
1E
100
AcDbEntity
  8
CSLAYER1
 62
     4
100
AcDbLine
 10
45.5727275
 20
71.79999999999996
 30
0.0
 11
45.18449849999999
 21
70.3511115
 31
0.0
  0
LINE
  5
1B9
330
1E
100
AcDbEntity
  8
CSLAYER1
 62
     4
100
AcDbLine
 10
45.5727275
 20
71.79999999999996
 30
0.0
 11
45.960956
 21
70.3511115
 31
0.0
  0
TEXT
  5
1BA
330
1E
100
AcDbEntity
  8
CSLAYER1
 62
     4
100
AcDbText
 10
24.01766
 20
58.9881735
 30
0.0
 40
1.5
  1
R45
 50
7.390843771213408
 41
1.124999925801252
 51
15.0
  7
FX_FONT
 72
     5
 11
28.48027249999999
 21
59.5670405
 31
0.0
100
AcDbText
  0
LINE
  5
1BB
330
1E
100
AcDbEntity
  8
CSLAYER1
 62
     4
100
AcDbLine
 10
20.3738715
 20
58.01133249999999
 30
0.0
 11
32.252697
 21
59.55219150000001
 31
0.0
  0
LINE
  5
1BC
330
1E
100
AcDbEntity
  8
CSLAYER1
 62
     4
100
AcDbLine
 10
20.3738715
 20
58.01133249999999
 30
0.0
 11
21.760782
 21
58.58271600000001
 31
0.0
  0
LINE
  5
1BD
330
1E
100
AcDbEntity
  8
CSLAYER1
 62
     4
100
AcDbLine
 10
20.3738715
 20
58.01133249999999
 30
0.0
 11
21.8606635
 21
57.81271
 31
0.0
  0
TEXT
  5
1BE
330
1E
100
AcDbEntity
  8
CSLAYER1
 62
     4
100
AcDbText
 10
60.79313149999995
 20
63.8152995
 30
0.0
 40
1.5
  1
R25
 50
64.82131559562822
 41
1.12500006596816
 51
15.0
  7
FX_FONT
 72
     5
 11
62.70762349999995
 21
67.88773399999995
 31
0.0
100
AcDbText
  0
LINE
  5
1BF
330
1E
100
AcDbEntity
  8
CSLAYER1
 62
     4
100
AcDbLine
 10
58.69423599999995
 20
58.1753655
 30
0.0
 11
63.22356800000001
 21
67.80998699999989
 31
0.0
  0
LINE
  5
1C0
330
1E
100
AcDbEntity
  8
CSLAYER1
 62
     4
100
AcDbLine
 10
58.69423599999995
 20
58.1753655
 30
0.0
 11
58.95931399999994
 21
59.65175749999995
 31
0.0
  0
LINE
  5
1C1
330
1E
100
AcDbEntity
  8
CSLAYER1
 62
     4
100
AcDbLine
 10
58.69423599999995
 20
58.1753655
 30
0.0
 11
59.66199649999989
 21
59.32141949999995
 31
0.0
  0
LINE
  5
1C2
330
1E
100
AcDbEntity
  8
CSLAYER1
  6
CONTINUOUS
 62
     4
100
AcDbLine
 10
74.469421
 20
61.819852
 30
0.0
 11
71.14803899999995
 21
49.4242855
 31
0.0
  0
LINE
  5
1C3
330
1E
100
AcDbEntity
  8
CSLAYER1
  6
CONTINUOUS
 62
     4
100
AcDbLine
 10
74.469421
 20
61.819852
 30
0.0
 11
74.469421
 21
60.31985200000001
 31
0.0
  0
LINE
  5
1C4
330
1E
100
AcDbEntity
  8
CSLAYER1
  6
CONTINUOUS
 62
     4
100
AcDbLine
 10
74.469421
 20
61.819852
 30
0.0
 11
73.71942099999995
 21
60.520814
 31
0.0
  0
LINE
  5
1C5
330
1E
100
AcDbEntity
  8
CSLAYER1
  6
CONTINUOUS
 62
     4
100
AcDbLine
 10
71.14803899999995
 20
49.4242855
 30
0.0
 11
64.14803899999999
 21
49.4242855
 31
0.0
  0
TEXT
  5
1C6
330
1E
100
AcDbEntity
  8
CSLAYER1
 62
     4
100
AcDbText
 10
64.545456
 20
49.924286
 30
0.0
 40
1.5
  1
%%c4.1
 41
1.142857142857142
 51
15.0
  7
FX_FONT
 72
     5
 11
70.545456
 21
49.924286
 31
0.0
100
AcDbText
  0
TEXT
  5
1C7
330
1E
100
AcDbEntity
  8
CSLAYER1
 62
     4
100
AcDbText
 10
45.2643435
 20
33.3274155
 30
0.0
 40
1.5
  1
7  
 50
90.0
 41
1.363636363636363
 51
15.0
  7
FX_FONT
 72
     5
 11
45.2643435
 21
37.8274155
 31
0.0
100
AcDbText
  0
TEXT
  5
1C8
330
1E
100
AcDbEntity
  8
CSLAYER1
 62
     4
100
AcDbText
 10
44.5143435
 20
37.8274155
 30
0.0
 40
0.75
  1
  0
 50
90.0
 41
1.607142857142857
 51
15.0
  7
FX_FONT
 72
     5
 11
44.5143435
 21
40.0774155
 31
0.0
100
AcDbText
  0
TEXT
  5
1C9
330
1E
100
AcDbEntity
  8
CSLAYER1
 62
     4
100
AcDbText
 10
45.2643435
 20
37.8274155
 30
0.0
 40
0.75
  1
-0.15
 50
90.0
 41
1.071428571428569
 51
15.0
  7
FX_FONT
 72
     5
 11
45.2643435
 21
41.57741549999999
 31
0.0
100
AcDbText
  0
LINE
  5
1CA
330
1E
100
AcDbEntity
  8
CSLAYER1
 62
     4
100
AcDbLine
 10
45.764342
 20
30.3
 30
0.0
 11
45.764342
 21
37.29999999999999
 31
0.0
  0
LINE
  5
1CB
330
1E
100
AcDbEntity
  8
CSLAYER1
 62
     4
100
AcDbLine
 10
45.764342
 20
30.3
 30
0.0
 11
45.3761135
 21
31.7488885
 31
0.0
  0
LINE
  5
1CC
330
1E
100
AcDbEntity
  8
CSLAYER1
 62
     4
100
AcDbLine
 10
45.764342
 20
30.3
 30
0.0
 11
46.152571
 21
31.7488885
 31
0.0
  0
LINE
  5
1CD
330
1E
100
AcDbEntity
  8
CSLAYER1
 62
     4
100
AcDbLine
 10
45.764342
 20
37.29999999999999
 30
0.0
 11
45.3761135
 21
35.8511115
 31
0.0
  0
LINE
  5
1CE
330
1E
100
AcDbEntity
  8
CSLAYER1
 62
     4
100
AcDbLine
 10
45.764342
 20
37.29999999999999
 30
0.0
 11
46.152571
 21
35.8511115
 31
0.0
  0
LINE
  5
1CF
330
1E
100
AcDbEntity
  8
CSLAYER1
 62
     4
100
AcDbLine
 10
63.5
 20
30.3
 30
0.0
 11
44.76434199999999
 21
30.3
 31
0.0
  0
LINE
  5
1D0
330
1E
100
AcDbEntity
  8
CSLAYER1
 62
     4
100
AcDbLine
 10
63.5
 20
37.29999999999999
 30
0.0
 11
44.76434199999999
 21
37.29999999999999
 31
0.0
  0
TEXT
  5
1D1
330
1E
100
AcDbEntity
  8
CSLAYER1
 62
     4
100
AcDbText
 10
66.75001550000001
 20
41.91902899999998
 30
0.0
 40
1.5
  1
10.5
 41
1.09090909090909
 51
15.0
  7
FX_FONT
 72
     5
 11
72.7500155
 21
41.91902899999998
 31
0.0
100
AcDbText
  0
LINE
  5
1D2
330
1E
100
AcDbEntity
  8
CSLAYER1
 62
     4
100
AcDbLine
 10
64.5
 20
37.79999999999999
 30
0.0
 11
64.5
 21
41.91903299999998
 31
0.0
  0
LINE
  5
1D3
330
1E
100
AcDbEntity
  8
CSLAYER1
 62
     4
100
AcDbLine
 10
75.0
 20
40.787143
 30
0.0
 11
75.0
 21
41.91903299999998
 31
0.0
  0
LINE
  5
1D4
330
1E
100
AcDbEntity
  8
CSLAYER1
 62
     4
100
AcDbLine
 10
64.5
 20
41.419033
 30
0.0
 11
75.0
 21
41.419033
 31
0.0
  0
LINE
  5
1D5
330
1E
100
AcDbEntity
  8
CSLAYER1
 62
     4
100
AcDbLine
 10
64.5
 20
41.419033
 30
0.0
 11
65.94888849999995
 21
41.80726149999999
 31
0.0
  0
LINE
  5
1D6
330
1E
100
AcDbEntity
  8
CSLAYER1
 62
     4
100
AcDbLine
 10
64.5
 20
41.419033
 30
0.0
 11
65.94888849999995
 21
41.03080449999999
 31
0.0
  0
LINE
  5
1D7
330
1E
100
AcDbEntity
  8
CSLAYER1
 62
     4
100
AcDbLine
 10
75.0
 20
41.419033
 30
0.0
 11
73.5511115
 21
41.80726149999999
 31
0.0
  0
LINE
  5
1D8
330
1E
100
AcDbEntity
  8
CSLAYER1
 62
     4
100
AcDbLine
 10
75.0
 20
41.419033
 30
0.0
 11
73.5511115
 21
41.03080449999999
 31
0.0
  0
TEXT
  5
1D9
330
1E
100
AcDbEntity
  8
CSLAYER1
 62
     4
100
AcDbText
 10
66.75001550000001
 20
25.82477
 30
0.0
 40
1.5
  1
10.5
 41
1.09090909090909
 51
15.0
  7
FX_FONT
 72
     5
 11
72.7500155
 21
25.82477
 31
0.0
100
AcDbText
  0
LINE
  5
1DA
330
1E
100
AcDbEntity
  8
CSLAYER1
 62
     4
100
AcDbLine
 10
64.5
 20
29.8
 30
0.0
 11
64.5
 21
24.8247745
 31
0.0
  0
LINE
  5
1DB
330
1E
100
AcDbEntity
  8
CSLAYER1
 62
     4
100
AcDbLine
 10
75.0
 20
27.31142849999999
 30
0.0
 11
75.0
 21
24.8247745
 31
0.0
  0
LINE
  5
1DC
330
1E
100
AcDbEntity
  8
CSLAYER1
 62
     4
100
AcDbLine
 10
64.5
 20
25.3247745
 30
0.0
 11
75.0
 21
25.3247745
 31
0.0
  0
LINE
  5
1DD
330
1E
100
AcDbEntity
  8
CSLAYER1
 62
     4
100
AcDbLine
 10
64.5
 20
25.3247745
 30
0.0
 11
65.94888849999995
 21
25.713003
 31
0.0
  0
LINE
  5
1DE
330
1E
100
AcDbEntity
  8
CSLAYER1
 62
     4
100
AcDbLine
 10
64.5
 20
25.3247745
 30
0.0
 11
65.94888849999995
 21
24.9365455
 31
0.0
  0
LINE
  5
1DF
330
1E
100
AcDbEntity
  8
CSLAYER1
 62
     4
100
AcDbLine
 10
75.0
 20
25.3247745
 30
0.0
 11
73.5511115
 21
25.713003
 31
0.0
  0
LINE
  5
1E0
330
1E
100
AcDbEntity
  8
CSLAYER1
 62
     4
100
AcDbLine
 10
75.0
 20
25.3247745
 30
0.0
 11
73.5511115
 21
24.9365455
 31
0.0
  0
TEXT
  5
1E1
330
1E
100
AcDbEntity
  8
CSLAYER1
 62
     4
100
AcDbText
 10
47.43866849999999
 20
24.9156555
 30
0.0
 40
1.5
  1
切刃部有効11.5
 50
344.9999982264591
 41
0.9310344794209672
 51
15.0
  7
FX_FONT
 72
     5
 11
60.478667
 21
21.42159799999999
 31
0.0
100
AcDbText
  0
LINE
  5
1E2
330
1E
100
AcDbEntity
  8
CSLAYER1
 62
     4
100
AcDbLine
 10
49.1063575
 20
26.8501435
 30
0.0
 11
60.2145045
 21
23.87372449999999
 31
0.0
  0
LINE
  5
1E3
330
1E
100
AcDbEntity
  8
CSLAYER1
 62
     4
100
AcDbLine
 10
49.1063575
 20
26.8501435
 30
0.0
 11
50.60635749999995
 21
26.8501435
 31
0.0
  0
LINE
  5
1E4
330
1E
100
AcDbEntity
  8
CSLAYER1
 62
     4
100
AcDbLine
 10
49.1063575
 20
26.8501435
 30
0.0
 11
50.4053955
 21
26.1001435
 31
0.0
  0
LINE
  5
1E5
330
1E
100
AcDbEntity
  8
CSLAYER1
 62
     4
100
AcDbLine
 10
60.2145045
 20
23.87372449999999
 30
0.0
 11
58.71450450000001
 21
23.87372449999999
 31
0.0
  0
LINE
  5
1E6
330
1E
100
AcDbEntity
  8
CSLAYER1
 62
     4
100
AcDbLine
 10
60.2145045
 20
23.87372449999999
 30
0.0
 11
58.915466
 21
24.6237245
 31
0.0
  0
LINE
  5
1E7
330
1E
100
AcDbEntity
  8
CSLAYER1
 62
     4
100
AcDbLine
 10
50.74118099999999
 20
32.9513885
 30
0.0
 11
48.8475385
 21
25.8842175
 31
0.0
  0
LINE
  5
1E8
330
1E
100
AcDbEntity
  8
CSLAYER1
 62
     4
100
AcDbLine
 10
61.849328
 20
29.9749695
 30
0.0
 11
59.95568549999995
 21
22.90779849999999
 31
0.0
  0
TEXT
  5
1E9
330
1E
100
AcDbEntity
  8
CSLAYER1
 62
     4
100
AcDbText
 10
13.620204
 20
14.1950885
 30
0.0
 40
1.5
  1
4
 50
90.0
 41
1.5
 51
15.0
  7
FX_FONT
 72
     5
 11
13.620204
 21
15.6950885
 31
0.0
100
AcDbText
  0
LINE
  5
1EA
330
1E
100
AcDbEntity
  8
CSLAYER1
 62
     4
100
AcDbLine
 10
14.120204
 20
12.945088
 30
0.0
 11
14.120204
 21
16.945088
 31
0.0
  0
LINE
  5
1EB
330
1E
100
AcDbEntity
  8
CSLAYER1
 62
     4
100
AcDbLine
 10
14.120204
 20
12.945088
 30
0.0
 11
13.7319755
 21
14.39397699999999
 31
0.0
  0
LINE
  5
1EC
330
1E
100
AcDbEntity
  8
CSLAYER1
 62
     4
100
AcDbLine
 10
14.120204
 20
12.945088
 30
0.0
 11
14.5084325
 21
14.39397699999999
 31
0.0
  0
LINE
  5
1ED
330
1E
100
AcDbEntity
  8
CSLAYER1
 62
     4
100
AcDbLine
 10
14.120204
 20
16.945088
 30
0.0
 11
13.7319755
 21
15.4961995
 31
0.0
  0
LINE
  5
1EE
330
1E
100
AcDbEntity
  8
CSLAYER1
 62
     4
100
AcDbLine
 10
14.120204
 20
16.945088
 30
0.0
 11
14.5084325
 21
15.4961995
 31
0.0
  0
LINE
  5
1EF
330
1E
100
AcDbEntity
  8
CSLAYER1
 62
     4
100
AcDbLine
 10
17.27563599999999
 20
12.945088
 30
0.0
 11
13.120204
 21
12.945088
 31
0.0
  0
LINE
  5
1F0
330
1E
100
AcDbEntity
  8
CSLAYER1
 62
     4
100
AcDbLine
 10
17.27563599999999
 20
16.945088
 30
0.0
 11
13.120204
 21
16.945088
 31
0.0
  0
ENDSEC
  0
SECTION
  2
OBJECTS
  0
DICTIONARY
  5
C
330
0
100
AcDbDictionary
  3
ACAD_GROUP
350
D
  3
ACAD_LAYOUT
350
19
  3
ACAD_MLINESTYLE
350
16
  3
ACAD_PLOTSETTINGS
350
18
1001
ACAD
1000
TREAT_AS_HARD
1070
     0
1000
TREAT_AS_HARD
1070
     0
1000
TREAT_AS_HARD
1070
     0
  0
DICTIONARY
  5
170
330
1E
100
AcDbDictionary
  3
ACAD_LAYOUTSELFREF
350
1F5
1001
ACAD
1000
TREAT_AS_HARD
1070
     0
1000
TREAT_AS_HARD
1070
     0
  0
DICTIONARY
  5
16E
330
1A
100
AcDbDictionary
  3
ACAD_LAYOUTSELFREF
350
1F4
1001
ACAD
1000
TREAT_AS_HARD
1070
     0
1000
TREAT_AS_HARD
1070
     0
  0
DICTIONARY
  5
D
102
{ACAD_REACTORS
330
C
102
}
330
C
100
AcDbDictionary
1001
ACAD
1000
TREAT_AS_HARD
1070
     0
1000
TREAT_AS_HARD
1070
     0
1000
TREAT_AS_HARD
1070
     0
  0
DICTIONARY
  5
19
102
{ACAD_REACTORS
330
C
102
}
330
C
100
AcDbDictionary
1001
ACAD
1000
TREAT_AS_HARD
1070
     0
1000
TREAT_AS_HARD
1070
     0
1000
TREAT_AS_HARD
1070
     0
  0
DICTIONARY
  5
16
102
{ACAD_REACTORS
330
C
102
}
330
C
100
AcDbDictionary
  3
STANDARD
350
17
1001
ACAD
1000
TREAT_AS_HARD
1070
     0
1000
TREAT_AS_HARD
1070
     0
1000
TREAT_AS_HARD
1070
     0
  0
DICTIONARY
  5
18
102
{ACAD_REACTORS
330
C
102
}
330
C
100
AcDbDictionary
1001
ACAD
1000
TREAT_AS_HARD
1070
     0
1000
TREAT_AS_HARD
1070
     0
1000
TREAT_AS_HARD
1070
     0
  0
XRECORD
  5
1F5
102
{ACAD_REACTORS
330
170
102
}
330
170
100
AcDbXrecord
340
1E
  0
XRECORD
  5
1F4
102
{ACAD_REACTORS
330
16E
102
}
330
16E
100
AcDbXrecord
340
1A
  0
MLINESTYLE
  5
17
102
{ACAD_REACTORS
330
16
102
}
330
16
100
AcDbMlineStyle
  2
STANDARD
 70
     0
  3

 62
   256
 51
90.0
 52
90.0
 71
     2
 49
0.5
 62
   256
  6
BYLAYER
 49
-0.5
 62
   256
  6
BYLAYER
  0
ENDSEC
  0
EOF
