  0
SECTION
  2
HEADER
  9
$ACADVER
  1
AC1006
  9
$EXTMIN
 10
0.0
 20
0.0
  9
$EXTMAX
 10
215.000000000000
 20
140.000000000000
  9
$LIMMIN
 10
0.0
 20
0.0
  9
$LIMMAX
 10
215.000000000000
 20
140.000000000000
  0
ENDSEC
  0
SECTION
  2
TABLES
  0
TABLE
  2
VPORT
 70
     2
  0
VPORT
  2
*ACTIVE
 70
     0
 10
0.0
 20
0.0
 11
1.0
 21
1.0
 12
7.914286
 22
4.5
 13
0.0
 23
0.0
 14
1.0
 24
1.0
 15
0.0
 25
0.0
 16
0.0
 26
0.0
 36
1.0
 17
0.0
 27
0.0
 37
0.0
 40
9.0
 41
1.75873
 42
50.0
 43
0.0
 44
0.0
 50
0.0
 51
0.0
 71
     0
 72
   100
 73
     1
 74
     1
 75
     0
 76
     0
 77
     0
 78
     0
  0
ENDTAB
  0
TABLE
  2
LTYPE
 70
     9
  0
LTYPE
  2
CONTINUOUS
 70
    64
  3
Solid line
 72
    65
 73
     0
 40
0.0
  0
LTYPE
  2
DASHED
 70
    64
  3
__ __ __ __ __ __ __ __ __ __ __ __ __ __ __
 72
    65
 73
     2
 40
0.75
 49
0.5
 49
-0.25
  0
LTYPE
  2
HIDDEN
 70
    64
  3
_ _ _ _ _ _ _ _ _ _ _ _ _ _ _ _ _ _ _ _ _ _ _
 72
    65
 73
     2
 40
0.375
 49
0.25
 49
-0.125
  0
LTYPE
  2
CENTER
 70
    64
  3
____ _ ____ _ ____ _ ____ _ ____ _ ____ _ ____
 72
    65
 73
     4
 40
2.0
 49
1.25
 49
-0.25
 49
0.25
 49
-0.25
  0
LTYPE
  2
PHANTOM
 70
    64
  3
_____ _ _ _____ _ _ _____ _ _ _____ _ _ ____
 72
    65
 73
     6
 40
2.5
 49
1.25
 49
-0.25
 49
0.25
 49
-0.25
 49
0.25
 49
-0.25
  0
LTYPE
  2
DOT
 70
    64
  3
...............................................
 72
    65
 73
     2
 40
0.25
 49
0.0
 49
-0.25
  0
LTYPE
  2
DASHDOT
 70
    64
  3
__ . __ . __ . __ . __ . __ . __ . __ . __ . __
 72
    65
 73
     4
 40
1.0
 49
0.5
 49
-0.25
 49
0.0
 49
-0.25
  0
LTYPE
  2
BORDER
 70
    64
  3
__ __ . __ __ . __ __ . __ __ . __ __ . __ __
 72
    65
 73
     6
 40
1.75
 49
0.5
 49
-0.25
 49
0.5
 49
-0.25
 49
0.0
 49
-0.25
  0
LTYPE
  2
DIVIDE
 70
    64
  3
__ . . __ . . __ . . __ . . __ . . __ . . __
 72
    65
 73
     6
 40
1.25
 49
0.5
 49
-0.25
 49
0.0
 49
-0.25
 49
0.0
 49
-0.25
  0
ENDTAB
  0
TABLE
  2
LAYER
 70
     1
  0
LAYER
  2
0
 70
     0
 62
     7
  6
CONTINUOUS
  0
ENDTAB
  0
TABLE
  2
STYLE
 70
     3
  0
STYLE
  2
STANDARD
 70
     0
 40
0.0
 41
1.0
 50
0.0
 71
     0
 42
0.2
  3
txt
  4

  0
STYLE
  2
KANJI1
 70
    64
 40
0.0
 41
1.0
 50
0.0
 71
     0
 42
0.2
  3

  4
BIGFONT
  0
STYLE
  2
KANJI2
 70
    68
 40
0.0
 41
1.0
 50
0.0
 71
     0
 42
0.2
  3

  4
BIGFONT
  0
ENDTAB
  0
TABLE
  2
VIEW
 70
     0
  0
ENDTAB
  0
TABLE
  2
UCS
 70
     0
  0
ENDTAB
  0
TABLE
  2
DWGMGR
 70
     0
  0
ENDTAB
  0
ENDSEC
  0
SECTION
  2
BLOCKS
  0
BLOCK
  8
0
  2
GRP144
 70
    64
 10
0.0
 20
0.0
  0
ARC
  8
0
 62
     1
  6
CONTINUOUS
 10
49.516698
 20
85.500012
 40
15.000000
 50
-90.000000
 51
-60.073565
  0
ENDBLK
  8
0
  0
BLOCK
  8
0
  2
GRP146
 70
    64
 10
0.0
 20
0.0
  0
ARC
  8
0
 62
     1
  6
CONTINUOUS
 10
49.516698
 20
39.500012
 40
15.000000
 50
60.073565
 51
90.000000
  0
ENDBLK
  8
0
  0
BLOCK
  8
0
  2
GRP1083
 70
    64
 10
0.0
 20
0.0
  0
LINE
  8
0
 62
     3
  6
CONTINUOUS
 10
170.495498
 20
114.493986
 11
165.000000
 21
121.500000
  0
LINE
  8
0
 62
     3
  6
CONTINUOUS
 10
170.495498
 20
114.493986
 11
169.695703
 21
115.094259
  0
LINE
  8
0
 62
     3
  6
CONTINUOUS
 10
170.495498
 20
114.493986
 11
170.102992
 21
115.413735
  0
LINE
  8
0
 62
     3
  6
CONTINUOUS
 10
165.000000
 20
121.500000
 11
153.000000
 21
121.500000
  0
ENDBLK
  8
0
  0
BLOCK
  8
0
  2
GRP1089
 70
    64
 10
0.0
 20
0.0
  0
ARC
  8
0
 62
     1
  6
CONTINUOUS
 10
47.000013
 20
108.500012
 40
3.300000
 50
8.714742
 51
171.285258
  0
ARC
  8
0
 62
     1
  6
CONTINUOUS
 10
47.000013
 20
108.500012
 40
3.300000
 50
-171.285258
 51
-8.714742
  0
ENDBLK
  8
0
  0
BLOCK
  8
0
  2
GRP1112
 70
    64
 10
0.0
 20
0.0
  0
LINE
  8
0
 62
     2
  6
CENTER
 10
172.500004
 20
97.500012
 11
172.500004
 21
119.500012
  0
LINE
  8
0
 62
     2
  6
CENTER
 10
186.000000
 20
108.500012
 11
159.000000
 21
108.500012
  0
ENDBLK
  8
0
  0
BLOCK
  8
0
  2
GRP1113
 70
    64
 10
0.0
 20
0.0
  0
LINE
  8
0
 62
     2
  6
CENTER
 10
169.000004
 20
113.000012
 11
176.000004
 21
113.000012
  0
ENDBLK
  8
0
  0
BLOCK
  8
0
  2
GRP1114
 70
    64
 10
0.0
 20
0.0
  0
LINE
  8
0
 62
     2
  6
CENTER
 10
169.000004
 20
104.000012
 11
176.000004
 21
104.000012
  0
ENDBLK
  8
0
  0
BLOCK
  8
0
  2
GRP2030
 70
    64
 10
0.0
 20
0.0
  0
ARC
  8
0
 62
     1
  6
CONTINUOUS
 10
34.639237
 20
93.500012
 40
20.000000
 50
90.000000
 51
129.194967
  0
ENDBLK
  8
0
  0
BLOCK
  8
0
  2
GRP2031
 70
    64
 10
0.0
 20
0.0
  0
ARC
  8
0
 62
     1
  6
CONTINUOUS
 10
34.639237
 20
123.500012
 40
20.000000
 50
-129.194967
 51
-90.000000
  0
ENDBLK
  8
0
  0
BLOCK
  8
0
  2
GRP2344
 70
    64
 10
0.0
 20
0.0
  0
LINE
  8
0
 62
     2
  6
CENTER
 10
47.000013
 20
113.000012
 11
47.000013
 21
104.000012
  0
ENDBLK
  8
0
  0
BLOCK
  8
0
  2
GRP2346
 70
    64
 10
0.0
 20
0.0
  0
LINE
  8
0
 62
     3
  6
CONTINUOUS
 10
18.000000
 20
113.500012
 11
15.000000
 21
113.500012
  0
LINE
  8
0
 62
     3
  6
CONTINUOUS
 10
18.000000
 20
103.500012
 11
15.000000
 21
103.500012
  0
LINE
  8
0
 62
     3
  6
CONTINUOUS
 10
16.500000
 20
113.500012
 11
16.500000
 21
103.500012
  0
LINE
  8
0
 62
     3
  6
CONTINUOUS
 10
16.500000
 20
113.500012
 11
16.758819
 21
112.534087
  0
LINE
  8
0
 62
     3
  6
CONTINUOUS
 10
16.500000
 20
113.500012
 11
16.241181
 21
112.534087
  0
LINE
  8
0
 62
     3
  6
CONTINUOUS
 10
16.500000
 20
103.500012
 11
16.241181
 21
104.465938
  0
LINE
  8
0
 62
     3
  6
CONTINUOUS
 10
16.500000
 20
103.500012
 11
16.758819
 21
104.465938
  0
LINE
  8
0
 62
     3
  6
CONTINUOUS
 10
22.000013
 20
93.000000
 11
22.000013
 21
90.000000
  0
LINE
  8
0
 62
     3
  6
CONTINUOUS
 10
47.000013
 20
93.000000
 11
47.000013
 21
90.000000
  0
LINE
  8
0
 62
     3
  6
CONTINUOUS
 10
22.000013
 20
91.500000
 11
47.000013
 21
91.500000
  0
LINE
  8
0
 62
     3
  6
CONTINUOUS
 10
22.000013
 20
91.500000
 11
22.965938
 21
91.758819
  0
LINE
  8
0
 62
     3
  6
CONTINUOUS
 10
22.000013
 20
91.500000
 11
22.965938
 21
91.241181
  0
LINE
  8
0
 62
     3
  6
CONTINUOUS
 10
47.000013
 20
91.500000
 11
46.034087
 21
91.241181
  0
LINE
  8
0
 62
     3
  6
CONTINUOUS
 10
47.000013
 20
91.500000
 11
46.034087
 21
91.758819
  0
LINE
  8
0
 62
     3
  6
CONTINUOUS
 10
142.000013
 20
93.000000
 11
142.000013
 21
90.000000
  0
LINE
  8
0
 62
     3
  6
CONTINUOUS
 10
47.000013
 20
91.500000
 11
142.000013
 21
91.500000
  0
LINE
  8
0
 62
     3
  6
CONTINUOUS
 10
47.000013
 20
91.500000
 11
47.965938
 21
91.758819
  0
LINE
  8
0
 62
     3
  6
CONTINUOUS
 10
47.000013
 20
91.500000
 11
47.965938
 21
91.241181
  0
LINE
  8
0
 62
     3
  6
CONTINUOUS
 10
142.000013
 20
91.500000
 11
141.034087
 21
91.241181
  0
LINE
  8
0
 62
     3
  6
CONTINUOUS
 10
142.000013
 20
91.500000
 11
141.034087
 21
91.758819
  0
LINE
  8
0
 62
     3
  6
CONTINUOUS
 10
22.000013
 20
81.000000
 11
22.000013
 21
84.000000
  0
LINE
  8
0
 62
     3
  6
CONTINUOUS
 10
41.000013
 20
81.000000
 11
41.000013
 21
84.000000
  0
LINE
  8
0
 62
     3
  6
CONTINUOUS
 10
22.000013
 20
82.500000
 11
41.000013
 21
82.500000
  0
LINE
  8
0
 62
     3
  6
CONTINUOUS
 10
22.000013
 20
82.500000
 11
22.965938
 21
82.758819
  0
LINE
  8
0
 62
     3
  6
CONTINUOUS
 10
22.000013
 20
82.500000
 11
22.965938
 21
82.241181
  0
LINE
  8
0
 62
     3
  6
CONTINUOUS
 10
41.000013
 20
82.500000
 11
40.034087
 21
82.241181
  0
LINE
  8
0
 62
     3
  6
CONTINUOUS
 10
41.000013
 20
82.500000
 11
40.034087
 21
82.758819
  0
LINE
  8
0
 62
     3
  6
CONTINUOUS
 10
137.000013
 20
81.000000
 11
137.000013
 21
84.000000
  0
LINE
  8
0
 62
     3
  6
CONTINUOUS
 10
41.000013
 20
82.500000
 11
137.000013
 21
82.500000
  0
LINE
  8
0
 62
     3
  6
CONTINUOUS
 10
41.000013
 20
82.500000
 11
41.965938
 21
82.758819
  0
LINE
  8
0
 62
     3
  6
CONTINUOUS
 10
41.000013
 20
82.500000
 11
41.965938
 21
82.241181
  0
LINE
  8
0
 62
     3
  6
CONTINUOUS
 10
137.000013
 20
82.500000
 11
136.034087
 21
82.241181
  0
LINE
  8
0
 62
     3
  6
CONTINUOUS
 10
137.000013
 20
82.500000
 11
136.034087
 21
82.758819
  0
LINE
  8
0
 62
     3
  6
CONTINUOUS
 10
142.000013
 20
81.000000
 11
142.000013
 21
84.000000
  0
LINE
  8
0
 62
     3
  6
CONTINUOUS
 10
137.000013
 20
82.500000
 11
142.000013
 21
82.500000
  0
LINE
  8
0
 62
     3
  6
CONTINUOUS
 10
137.000013
 20
82.500000
 11
137.965938
 21
82.758819
  0
LINE
  8
0
 62
     3
  6
CONTINUOUS
 10
137.000013
 20
82.500000
 11
137.965938
 21
82.241181
  0
LINE
  8
0
 62
     3
  6
CONTINUOUS
 10
142.000013
 20
82.500000
 11
141.034087
 21
82.241181
  0
LINE
  8
0
 62
     3
  6
CONTINUOUS
 10
142.000013
 20
82.500000
 11
141.034087
 21
82.758819
  0
LINE
  8
0
 62
     3
  6
CONTINUOUS
 10
147.000000
 20
71.500012
 11
150.000000
 21
71.500012
  0
LINE
  8
0
 62
     3
  6
CONTINUOUS
 10
147.000000
 20
53.500012
 11
150.000000
 21
53.500012
  0
LINE
  8
0
 62
     3
  6
CONTINUOUS
 10
148.500000
 20
71.500012
 11
148.500000
 21
53.500012
  0
LINE
  8
0
 62
     3
  6
CONTINUOUS
 10
148.500000
 20
71.500012
 11
148.758819
 21
70.534087
  0
LINE
  8
0
 62
     3
  6
CONTINUOUS
 10
148.500000
 20
71.500012
 11
148.241181
 21
70.534087
  0
LINE
  8
0
 62
     3
  6
CONTINUOUS
 10
148.500000
 20
53.500012
 11
148.241181
 21
54.465938
  0
LINE
  8
0
 62
     3
  6
CONTINUOUS
 10
148.500000
 20
53.500012
 11
148.758819
 21
54.465938
  0
LINE
  8
0
 62
     3
  6
CONTINUOUS
 10
22.000013
 20
45.000000
 11
22.000013
 21
42.000000
  0
LINE
  8
0
 62
     3
  6
CONTINUOUS
 10
142.000013
 20
45.000000
 11
142.000013
 21
42.000000
  0
LINE
  8
0
 62
     3
  6
CONTINUOUS
 10
22.000013
 20
43.500000
 11
142.000013
 21
43.500000
  0
LINE
  8
0
 62
     3
  6
CONTINUOUS
 10
22.000013
 20
43.500000
 11
22.965938
 21
43.758819
  0
LINE
  8
0
 62
     3
  6
CONTINUOUS
 10
22.000013
 20
43.500000
 11
22.965938
 21
43.241181
  0
LINE
  8
0
 62
     3
  6
CONTINUOUS
 10
142.000013
 20
43.500000
 11
141.034087
 21
43.241181
  0
LINE
  8
0
 62
     3
  6
CONTINUOUS
 10
142.000013
 20
43.500000
 11
141.034087
 21
43.758819
  0
LINE
  8
0
 62
     3
  6
CONTINUOUS
 10
18.000000
 20
65.000012
 11
15.000000
 21
65.000012
  0
LINE
  8
0
 62
     3
  6
CONTINUOUS
 10
18.000000
 20
60.000012
 11
15.000000
 21
60.000012
  0
LINE
  8
0
 62
     3
  6
CONTINUOUS
 10
16.500000
 20
65.000012
 11
16.500000
 21
60.000012
  0
LINE
  8
0
 62
     3
  6
CONTINUOUS
 10
16.500000
 20
65.000012
 11
16.758819
 21
64.034087
  0
LINE
  8
0
 62
     3
  6
CONTINUOUS
 10
16.500000
 20
65.000012
 11
16.241181
 21
64.034087
  0
LINE
  8
0
 62
     3
  6
CONTINUOUS
 10
16.500000
 20
60.000012
 11
16.241181
 21
60.965938
  0
LINE
  8
0
 62
     3
  6
CONTINUOUS
 10
16.500000
 20
60.000012
 11
16.758819
 21
60.965938
  0
LINE
  8
0
 62
     3
  6
CONTINUOUS
 10
18.000000
 20
70.500012
 11
12.000000
 21
70.500012
  0
LINE
  8
0
 62
     3
  6
CONTINUOUS
 10
18.000000
 20
54.500012
 11
12.000000
 21
54.500012
  0
LINE
  8
0
 62
     3
  6
CONTINUOUS
 10
13.500000
 20
70.500012
 11
13.500000
 21
54.500012
  0
LINE
  8
0
 62
     3
  6
CONTINUOUS
 10
13.500000
 20
70.500012
 11
13.758819
 21
69.534087
  0
LINE
  8
0
 62
     3
  6
CONTINUOUS
 10
13.500000
 20
70.500012
 11
13.241181
 21
69.534087
  0
LINE
  8
0
 62
     3
  6
CONTINUOUS
 10
13.500000
 20
54.500012
 11
13.241181
 21
55.465938
  0
LINE
  8
0
 62
     3
  6
CONTINUOUS
 10
13.500000
 20
54.500012
 11
13.758819
 21
55.465938
  0
LINE
  8
0
 62
     3
  6
CONTINUOUS
 10
162.500004
 20
93.000000
 11
162.500004
 21
90.000000
  0
LINE
  8
0
 62
     3
  6
CONTINUOUS
 10
182.500004
 20
93.000000
 11
182.500004
 21
90.000000
  0
LINE
  8
0
 62
     3
  6
CONTINUOUS
 10
162.500004
 20
91.500000
 11
182.500004
 21
91.500000
  0
LINE
  8
0
 62
     3
  6
CONTINUOUS
 10
162.500004
 20
91.500000
 11
163.465930
 21
91.758819
  0
LINE
  8
0
 62
     3
  6
CONTINUOUS
 10
162.500004
 20
91.500000
 11
163.465930
 21
91.241181
  0
LINE
  8
0
 62
     3
  6
CONTINUOUS
 10
182.500004
 20
91.500000
 11
181.534078
 21
91.241181
  0
LINE
  8
0
 62
     3
  6
CONTINUOUS
 10
182.500004
 20
91.500000
 11
181.534078
 21
91.758819
  0
LINE
  8
0
 62
     3
  6
CONTINUOUS
 10
157.500000
 20
113.000012
 11
154.500000
 21
113.000012
  0
LINE
  8
0
 62
     3
  6
CONTINUOUS
 10
157.500000
 20
104.000012
 11
154.500000
 21
104.000012
  0
LINE
  8
0
 62
     3
  6
CONTINUOUS
 10
156.000000
 20
113.000012
 11
156.000000
 21
104.000012
  0
LINE
  8
0
 62
     3
  6
CONTINUOUS
 10
156.000000
 20
113.000012
 11
156.258819
 21
112.034087
  0
LINE
  8
0
 62
     3
  6
CONTINUOUS
 10
156.000000
 20
113.000012
 11
155.741181
 21
112.034087
  0
LINE
  8
0
 62
     3
  6
CONTINUOUS
 10
156.000000
 20
104.000012
 11
155.741181
 21
104.965938
  0
LINE
  8
0
 62
     3
  6
CONTINUOUS
 10
156.000000
 20
104.000012
 11
156.258819
 21
104.965938
  0
ENDBLK
  8
0
  0
ENDSEC
  0
SECTION
  2
ENTITIES
  0
INSERT
  8
0
  2
GRP144
 10
0.0
 20
0.0
 41
1.0
 42
1.0
 50
0.0
  0
INSERT
  8
0
  2
GRP146
 10
0.0
 20
0.0
 41
1.0
 42
1.0
 50
0.0
  0
INSERT
  8
0
  2
GRP1083
 10
0.0
 20
0.0
 41
1.0
 42
1.0
 50
0.0
  0
INSERT
  8
0
  2
GRP1089
 10
0.0
 20
0.0
 41
1.0
 42
1.0
 50
0.0
  0
INSERT
  8
0
  2
GRP1112
 10
0.0
 20
0.0
 41
1.0
 42
1.0
 50
0.0
  0
INSERT
  8
0
  2
GRP1113
 10
0.0
 20
0.0
 41
1.0
 42
1.0
 50
0.0
  0
INSERT
  8
0
  2
GRP1114
 10
0.0
 20
0.0
 41
1.0
 42
1.0
 50
0.0
  0
INSERT
  8
0
  2
GRP2030
 10
0.0
 20
0.0
 41
1.0
 42
1.0
 50
0.0
  0
INSERT
  8
0
  2
GRP2031
 10
0.0
 20
0.0
 41
1.0
 42
1.0
 50
0.0
  0
INSERT
  8
0
  2
GRP2344
 10
0.0
 20
0.0
 41
1.0
 42
1.0
 50
0.0
  0
INSERT
  8
0
  2
GRP2346
 10
0.0
 20
0.0
 41
1.0
 42
1.0
 50
0.0
  0
LINE
  8
0
 62
     1
  6
CONTINUOUS
 10
57.000013
 20
72.500012
 11
137.000013
 21
72.500012
  0
LINE
  8
0
 62
     1
  6
CONTINUOUS
 10
57.000013
 20
52.500012
 11
137.000013
 21
52.500012
  0
LINE
  8
0
 62
     1
  6
CONTINUOUS
 10
43.535911
 20
109.000012
 11
50.464114
 21
109.000012
  0
LINE
  8
0
 62
     1
  6
CONTINUOUS
 10
43.535911
 20
108.000012
 11
50.464114
 21
108.000012
  0
LINE
  8
0
 62
     1
  6
CONTINUOUS
 10
137.000013
 20
118.500012
 11
141.000013
 21
118.500012
  0
LINE
  8
0
 62
     1
  6
CONTINUOUS
 10
142.000013
 20
117.500012
 11
142.000013
 21
108.500012
  0
LINE
  8
0
 62
     1
  6
CONTINUOUS
 10
141.000013
 20
118.500012
 11
142.000013
 21
117.500012
  0
LINE
  8
0
 62
     1
  6
CONTINUOUS
 10
142.000013
 20
99.500012
 11
142.000013
 21
108.500012
  0
CIRCLE
  8
0
 62
     1
  6
CONTINUOUS
 10
172.500004
 20
108.500012
 40
10.000000
  0
CIRCLE
  8
0
 62
     1
  6
CONTINUOUS
 10
172.500004
 20
108.500012
 40
9.000000
  0
CIRCLE
  8
0
 62
     2
  6
CONTINUOUS
 10
172.500004
 20
113.000012
 40
2.500000
  0
CIRCLE
  8
0
 62
     1
  6
CONTINUOUS
 10
172.500004
 20
113.000012
 40
2.100000
  0
CIRCLE
  8
0
 62
     2
  6
CONTINUOUS
 10
172.500004
 20
104.000012
 40
2.500000
  0
CIRCLE
  8
0
 62
     1
  6
CONTINUOUS
 10
172.500004
 20
104.000012
 40
2.100000
  0
LINE
  8
0
 62
     1
  6
CONTINUOUS
 10
163.500004
 20
112.858911
 11
163.500004
 21
104.141113
  0
LINE
  8
0
 62
     1
  6
CONTINUOUS
 10
181.500004
 20
112.858911
 11
181.500004
 21
104.141113
  0
LINE
  8
0
 62
     1
  6
CONTINUOUS
 10
137.000013
 20
98.500012
 11
141.000013
 21
98.500012
  0
LINE
  8
0
 62
     1
  6
CONTINUOUS
 10
141.000013
 20
98.500012
 11
142.000013
 21
99.500012
  0
CIRCLE
  8
0
 62
     1
  6
CONTINUOUS
 10
172.500004
 20
113.000012
 40
1.000000
  0
LINE
  8
0
 62
     1
  6
CONTINUOUS
 10
142.000013
 20
112.858911
 11
139.000013
 21
112.858911
  0
LINE
  8
0
 62
     1
  6
CONTINUOUS
 10
139.000013
 20
112.858911
 11
139.000013
 21
104.141113
  0
LINE
  8
0
 62
     1
  6
CONTINUOUS
 10
139.000013
 20
104.141113
 11
142.000013
 21
104.141113
  0
LINE
  8
0
 62
     1
  6
CONTINUOUS
 10
141.000013
 20
118.500012
 11
141.000013
 21
112.858911
  0
LINE
  8
0
 62
     1
  6
CONTINUOUS
 10
141.000013
 20
104.141113
 11
141.000013
 21
98.500012
  0
LINE
  8
0
 62
     1
  6
CONTINUOUS
 10
142.000013
 20
71.500012
 11
142.000013
 21
62.500012
  0
LINE
  8
0
 62
     1
  6
CONTINUOUS
 10
142.000013
 20
53.500012
 11
142.000013
 21
62.500012
  0
LINE
  8
0
 62
     1
  6
CONTINUOUS
 10
139.000013
 20
52.500012
 11
137.000013
 21
52.500012
  0
LINE
  8
0
 62
     1
  6
CONTINUOUS
 10
139.000013
 20
72.500012
 11
139.000013
 21
71.500012
  0
LINE
  8
0
 62
     1
  6
CONTINUOUS
 10
139.000013
 20
71.500012
 11
142.000013
 21
71.500012
  0
LINE
  8
0
 62
     1
  6
CONTINUOUS
 10
139.000013
 20
52.500012
 11
139.000013
 21
53.500012
  0
LINE
  8
0
 62
     1
  6
CONTINUOUS
 10
139.000013
 20
53.500012
 11
142.000013
 21
53.500012
  0
LINE
  8
0
 62
     1
  6
CONTINUOUS
 10
141.000013
 20
71.500012
 11
141.000013
 21
62.500012
  0
LINE
  8
0
 62
     1
  6
CONTINUOUS
 10
139.000013
 20
72.500012
 11
137.000013
 21
72.500012
  0
LINE
  8
0
 62
     1
  6
CONTINUOUS
 10
141.000013
 20
53.500012
 11
141.000013
 21
62.500012
  0
LINE
  8
0
 62
     1
  6
CONTINUOUS
 10
139.000013
 20
52.500012
 11
137.000013
 21
52.500012
  0
LINE
  8
0
 62
     1
  6
CONTINUOUS
 10
22.000013
 20
109.000012
 11
22.000013
 21
108.000012
  0
LINE
  8
0
 62
     1
  6
CONTINUOUS
 10
42.000013
 20
113.500012
 11
40.000013
 21
111.500012
  0
LINE
  8
0
 62
     1
  6
CONTINUOUS
 10
42.000013
 20
113.500012
 11
40.000013
 21
111.500012
  0
LINE
  8
0
 62
     1
  6
CONTINUOUS
 10
40.000013
 20
111.500012
 11
40.000013
 21
108.500012
  0
ARC
  8
0
 62
     1
  6
CONTINUOUS
 10
39.500013
 20
109.500012
 40
0.500000
 50
-90.000000
 51
0.000000
  0
ARC
  8
0
 62
     1
  6
CONTINUOUS
 10
39.500013
 20
109.232063
 40
0.500000
 50
-90.000000
 51
0.000000
  0
LINE
  8
0
 62
     1
  6
CONTINUOUS
 10
39.500013
 20
109.000012
 11
22.000013
 21
109.000012
  0
LINE
  8
0
 62
     1
  6
CONTINUOUS
 10
39.500013
 20
108.732063
 11
22.000013
 21
108.732063
  0
LINE
  8
0
 62
     1
  6
CONTINUOUS
 10
24.718493
 20
106.133987
 11
39.000013
 21
106.133987
  0
LINE
  8
0
 62
     1
  6
CONTINUOUS
 10
40.000013
 20
107.133987
 11
40.000013
 21
111.500012
  0
ARC
  8
0
 62
     1
  6
CONTINUOUS
 10
39.000013
 20
107.133987
 40
1.000000
 50
-90.000000
 51
0.000000
  0
LINE
  8
0
 62
     1
  6
CONTINUOUS
 10
55.000013
 20
65.000012
 11
55.000013
 21
62.500012
  0
LINE
  8
0
 62
     1
  6
CONTINUOUS
 10
54.000013
 20
65.000012
 11
54.000013
 21
62.500012
  0
LINE
  8
0
 62
     1
  6
CONTINUOUS
 10
52.000013
 20
65.000012
 11
52.000013
 21
62.500012
  0
LINE
  8
0
 62
     1
  6
CONTINUOUS
 10
22.000013
 20
63.500012
 11
22.000013
 21
61.500012
  0
ARC
  8
0
 62
     1
  6
CONTINUOUS
 10
33.703644
 20
47.281966
 40
20.000000
 50
116.696057
 51
125.815817
  0
ARC
  8
0
 62
     1
  6
CONTINUOUS
 10
33.703644
 20
77.718059
 40
20.000000
 50
-125.815817
 51
-116.696057
  0
LINE
  8
0
 62
     1
  6
CONTINUOUS
 10
24.671765
 20
65.126438
 11
39.000013
 21
65.000012
  0
LINE
  8
0
 62
     1
  6
CONTINUOUS
 10
24.671765
 20
59.873587
 11
39.000013
 21
60.000012
  0
ARC
  8
0
 62
     1
  6
CONTINUOUS
 10
39.500013
 20
61.000012
 40
0.500000
 50
0.000000
 51
90.000000
  0
LINE
  8
0
 62
     1
  6
CONTINUOUS
 10
39.500013
 20
61.500012
 11
22.000013
 21
61.500012
  0
LINE
  8
0
 62
     2
  6
CENTER
 10
22.000013
 20
62.500012
 11
21.000013
 21
62.500012
  0
LINE
  8
0
 62
     1
  6
CONTINUOUS
 10
22.000013
 20
62.500012
 11
55.000013
 21
62.500012
  0
LINE
  8
0
 62
     1
  6
CONTINUOUS
 10
22.000013
 20
62.699766
 11
40.000013
 21
62.699766
  0
LINE
  8
0
 62
     1
  6
CONTINUOUS
 10
40.000013
 20
62.699766
 11
40.000013
 21
60.000012
  0
LINE
  8
0
 62
     1
  6
CONTINUOUS
 10
41.000013
 20
108.500012
 11
41.000013
 21
106.000012
  0
LINE
  8
0
 62
     1
  6
CONTINUOUS
 10
41.000013
 20
106.000012
 11
53.990394
 21
98.500012
  0
LINE
  8
0
 62
     1
  6
CONTINUOUS
 10
53.990394
 20
98.500012
 11
137.000013
 21
98.500012
  0
LINE
  8
0
 62
     1
  6
CONTINUOUS
 10
137.000013
 20
98.500012
 11
137.000013
 21
108.500012
  0
LINE
  8
0
 62
     1
  6
CONTINUOUS
 10
41.000013
 20
108.500012
 11
41.000013
 21
111.000012
  0
LINE
  8
0
 62
     1
  6
CONTINUOUS
 10
41.000013
 20
111.000012
 11
53.990394
 21
118.500012
  0
LINE
  8
0
 62
     1
  6
CONTINUOUS
 10
53.990394
 20
118.500012
 11
137.000013
 21
118.500012
  0
LINE
  8
0
 62
     1
  6
CONTINUOUS
 10
137.000013
 20
118.500012
 11
137.000013
 21
108.500012
  0
LINE
  8
0
 62
     1
  6
CONTINUOUS
 10
41.000013
 20
65.000012
 11
57.000013
 21
65.000012
  0
LINE
  8
0
 62
     1
  6
CONTINUOUS
 10
57.000013
 20
65.000012
 11
57.000013
 21
62.500012
  0
LINE
  8
0
 62
     1
  6
CONTINUOUS
 10
41.000013
 20
68.500012
 11
41.000013
 21
65.000012
  0
LINE
  8
0
 62
     1
  6
CONTINUOUS
 10
43.000013
 20
70.500012
 11
41.000013
 21
68.500012
  0
LINE
  8
0
 62
     1
  6
CONTINUOUS
 10
41.000013
 20
60.000012
 11
57.000013
 21
60.000012
  0
LINE
  8
0
 62
     1
  6
CONTINUOUS
 10
57.000013
 20
60.000012
 11
57.000013
 21
62.500012
  0
LINE
  8
0
 62
     1
  6
CONTINUOUS
 10
41.000013
 20
56.500012
 11
41.000013
 21
60.000012
  0
LINE
  8
0
 62
     1
  6
CONTINUOUS
 10
43.000013
 20
54.500012
 11
41.000013
 21
56.500012
  0
CIRCLE
  8
0
 62
     1
  6
CONTINUOUS
 10
47.000013
 20
108.500012
 40
3.500000
  0
LINE
  8
0
 62
     1
  6
CONTINUOUS
 10
50.369332
 20
54.500012
 11
43.000013
 21
54.500012
  0
LINE
  8
0
 62
     1
  6
CONTINUOUS
 10
50.369332
 20
70.500012
 11
43.000013
 21
70.500012
  0
LINE
  8
0
 62
     2
  6
CENTER
 10
47.000013
 20
71.500012
 11
47.000013
 21
53.500012
  0
LINE
  8
0
 62
     1
  6
CONTINUOUS
 10
60.000013
 20
118.500012
 11
60.000013
 21
98.500012
  0
LINE
  8
0
 62
     1
  6
CONTINUOUS
 10
43.000013
 20
112.154713
 11
43.000013
 21
104.845312
  0
LINE
  8
0
 62
     1
  6
CONTINUOUS
 10
53.990394
 20
70.943642
 11
53.990394
 21
65.000012
  0
LINE
  8
0
 62
     1
  6
CONTINUOUS
 10
53.990394
 20
60.000012
 11
53.990394
 21
54.056383
  0
LINE
  8
0
 62
     1
  6
CONTINUOUS
 10
45.330140
 20
113.500012
 11
34.639237
 21
113.500012
  0
LINE
  8
0
 62
     1
  6
CONTINUOUS
 10
45.330140
 20
103.500012
 11
34.639237
 21
103.500012
  0
LINE
  8
0
 62
     1
  6
CONTINUOUS
 10
41.000013
 20
65.000012
 11
39.000013
 21
65.000012
  0
LINE
  8
0
 62
     1
  6
CONTINUOUS
 10
41.000013
 20
60.000012
 11
39.000013
 21
60.000012
  0
LINE
  8
0
 62
     2
  6
CENTER
 10
144.000000
 20
108.500012
 11
21.000013
 21
108.500012
  0
LINE
  8
0
 62
     2
  6
CENTER
 10
144.000000
 20
62.500012
 11
55.000013
 21
62.500012
  0
LINE
  8
0
 62
     1
  6
CONTINUOUS
 10
137.000013
 20
72.500012
 11
137.000013
 21
62.500012
  0
LINE
  8
0
 62
     1
  6
CONTINUOUS
 10
137.000013
 20
52.500012
 11
137.000013
 21
62.500012
  0
TEXT
  8
0
 62
     1
 10
205.379694
 20
223.982097
 40
2.500000
  1
Ｊ
 41
0.600000
 51
0.000000
 50
300.000000
  7
KANJI1
  0
TEXT
  8
0
 62
     1
 10
205.379694
 20
223.982097
 40
2.500000
  1
Ｊ
 41
0.600000
 51
0.000000
 50
300.000000
  7
KANJI1
  0
TEXT
  8
0
 62
     1
 10
205.379694
 20
223.982097
 40
2.500000
  1
Ｊ
 41
0.600000
 51
0.000000
 50
300.000000
  7
KANJI1
  0
TEXT
  8
0
 62
     1
 10
205.379694
 20
223.982097
 40
2.500000
  1
Ｊ
 41
0.600000
 51
0.000000
 50
300.000000
  7
KANJI1
  0
TEXT
  8
0
 62
     1
 10
205.379694
 20
223.982097
 40
2.500000
  1
Ｊ
 41
0.600000
 51
0.000000
 50
300.000000
  7
KANJI1
  0
TEXT
  8
0
 62
     1
 10
205.379694
 20
223.982097
 40
2.500000
  1
Ｊ
 41
0.600000
 51
0.000000
 50
300.000000
  7
KANJI1
  0
TEXT
  8
0
 62
     1
 10
205.379694
 20
223.982097
 40
2.500000
  1
Ｊ
 41
0.600000
 51
0.000000
 50
300.000000
  7
KANJI1
  0
TEXT
  8
0
 62
     1
 10
205.379694
 20
223.982097
 40
2.500000
  1
Ｊ
 41
0.600000
 51
0.000000
 50
300.000000
  7
KANJI1
  0
TEXT
  8
0
 62
     3
 10
153.000000
 20
122.000000
 40
1.500000
  1
Ｍ５　Ｐ＝０．８
 41
1.000000
 51
0.000000
 50
0.000000
  7
KANJI1
  0
TEXT
  8
0
 62
     1
 10
205.379694
 20
223.982097
 40
2.500000
  1
Ｊ
 41
0.600000
 51
0.000000
 50
300.000000
  7
KANJI1
  0
TEXT
  8
0
 62
     1
 10
205.379694
 20
223.982097
 40
2.500000
  1
Ｊ
 41
0.600000
 51
0.000000
 50
300.000000
  7
KANJI1
  0
TEXT
  8
0
 62
     1
 10
205.379694
 20
223.982097
 40
2.500000
  1
Ｊ
 41
0.600000
 51
0.000000
 50
300.000000
  7
KANJI1
  0
TEXT
  8
0
 62
     1
 10
205.379694
 20
223.982097
 40
2.500000
  1
Ｊ
 41
0.600000
 51
0.000000
 50
300.000000
  7
KANJI1
  0
TEXT
  8
0
 62
     1
 10
205.379694
 20
223.982097
 40
2.500000
  1
Ｊ
 41
0.600000
 51
0.000000
 50
300.000000
  7
KANJI1
  0
TEXT
  8
0
 62
     1
 10
205.379694
 20
223.982097
 40
2.500000
  1
Ｊ
 41
0.600000
 51
0.000000
 50
300.000000
  7
KANJI1
  0
TEXT
  8
0
 62
     1
 10
205.379694
 20
223.982097
 40
2.500000
  1
Ｊ
 41
0.600000
 51
0.000000
 50
300.000000
  7
KANJI1
  0
TEXT
  8
0
 62
     1
 10
205.379694
 20
223.982097
 40
2.500000
  1
Ｊ
 41
0.600000
 51
0.000000
 50
300.000000
  7
KANJI1
  0
TEXT
  8
0
 62
     1
 10
140.250013
 20
60.250012
 40
1.500000
  1
ＯＵＴ
 41
1.000000
 51
0.000000
 50
90.000000
  7
KANJI1
  0
TEXT
  8
0
 62
     1
 10
205.379694
 20
223.982097
 40
2.500000
  1
Ｊ
 41
0.600000
 51
0.000000
 50
300.000000
  7
KANJI1
  0
TEXT
  8
0
 62
     1
 10
205.379694
 20
223.982097
 40
2.500000
  1
Ｊ
 41
0.600000
 51
0.000000
 50
300.000000
  7
KANJI1
  0
TEXT
  8
0
 62
     1
 10
205.379694
 20
223.982097
 40
2.500000
  1
Ｊ
 41
0.600000
 51
0.000000
 50
300.000000
  7
KANJI1
  0
TEXT
  8
0
 62
     1
 10
205.379694
 20
223.982097
 40
2.500000
  1
Ｊ
 41
0.600000
 51
0.000000
 50
300.000000
  7
KANJI1
  0
TEXT
  8
0
 62
     1
 10
205.379694
 20
223.982097
 40
2.500000
  1
Ｊ
 41
0.600000
 51
0.000000
 50
300.000000
  7
KANJI1
  0
TEXT
  8
0
 62
     1
 10
205.379694
 20
223.982097
 40
2.500000
  1
Ｊ
 41
0.600000
 51
0.000000
 50
300.000000
  7
KANJI1
  0
TEXT
  8
0
 62
     1
 10
205.379694
 20
223.982097
 40
2.500000
  1
Ｊ
 41
0.600000
 51
0.000000
 50
300.000000
  7
KANJI1
  0
TEXT
  8
0
 62
     1
 10
205.379694
 20
223.982097
 40
2.500000
  1
Ｊ
 41
0.600000
 51
0.000000
 50
300.000000
  7
KANJI1
  0
TEXT
  8
0
 62
     3
 10
171.000004
 20
92.000000
 40
1.500000
  1
φ２０
 41
1.000000
 51
0.000000
 50
0.000000
  7
KANJI1
  0
TEXT
  8
0
 62
     3
 10
16.000000
 20
107.000012
 40
1.500000
  1
１０
 41
1.000000
 51
0.000000
 50
90.000000
  7
KANJI1
  0
TEXT
  8
0
 62
     3
 10
33.000013
 20
92.000000
 40
1.500000
  1
２５
 41
1.000000
 51
0.000000
 50
0.000000
  7
KANJI1
  0
TEXT
  8
0
 62
     3
 10
93.000013
 20
92.000000
 40
1.500000
  1
９５
 41
1.000000
 51
0.000000
 50
0.000000
  7
KANJI1
  0
TEXT
  8
0
 62
     3
 10
30.000013
 20
83.000000
 40
1.500000
  1
１９
 41
1.000000
 51
0.000000
 50
0.000000
  7
KANJI1
  0
TEXT
  8
0
 62
     3
 10
87.500013
 20
83.000000
 40
1.500000
  1
９６
 41
1.000000
 51
0.000000
 50
0.000000
  7
KANJI1
  0
TEXT
  8
0
 62
     3
 10
138.750013
 20
83.000000
 40
1.500000
  1
５
 41
1.000000
 51
0.000000
 50
0.000000
  7
KANJI1
  0
TEXT
  8
0
 62
     3
 10
148.000000
 20
61.000012
 40
1.500000
  1
１８
 41
1.000000
 51
0.000000
 50
90.000000
  7
KANJI1
  0
TEXT
  8
0
 62
     3
 10
79.750013
 20
44.000000
 40
1.500000
  1
１２０
 41
1.000000
 51
0.000000
 50
0.000000
  7
KANJI1
  0
TEXT
  8
0
 62
     3
 10
16.000000
 20
61.750012
 40
1.500000
  1
５
 41
1.000000
 51
0.000000
 50
90.000000
  7
KANJI1
  0
TEXT
  8
0
 62
     3
 10
13.000000
 20
61.000012
 40
1.500000
  1
１６
 41
1.000000
 51
0.000000
 50
90.000000
  7
KANJI1
  0
TEXT
  8
0
 62
     3
 10
155.500000
 20
107.750012
 40
1.500000
  1
９
 41
1.000000
 51
0.000000
 50
90.000000
  7
KANJI1
  0
ENDSEC
  0
EOF
